Song name
# A B C D E F G H I J K L M N O P Q R S T U V W X Y Z

Emery - Dont Bore Us Get To The Chorus tab

i only figured out the intro, but i'll try to tab the rest out soon.
tuned half step down.


eb|------------------------------------------------------------|
Bb|-----12~------------5~------------12~------------5~---------|
Gb|----12-------------5-------------12-------------5-----------|
Db|------------------------------------------------------------|
Ab|------------------------------------------------------------|
Eb|--12----12-----5-----5---------12-----12-----5--------------|

eb|------------------------------------------------------------|
Bb|-----12~------------5~------------7~------------5~----------|
Gb|----12-------------5-------------7-------------5------------| x2
Db|------------------------------------------------------------|
Ab|------------------------------------------------------------|
Eb|--12----12-------5-----5-------7-----7-------5-----5--------|

then replace the last set of 5's with:

eb|---------------|
Bb|-----8------7~-|
Gb|----9--9----8~-|
Db|---------------|
Ab|---------------|
Eb|--8------------|
|
Tap to rate this tab
# A B C D E F G H I J K L M N O P Q R S T U V W X Y Z