Song name
# A B C D E F G H I J K L M N O P Q R S T U V W X Y Z

Emf - Unbelievable tab

A|---------|----------5-3-5----3-3-|---------5\\\\-| 
E|---5-3-5-|--0-3-5----------5-----|--0-3-5--------|

A D E (Guit Power chords)
P P P P 

G|--2----5---5---6677---5---5---3322-|
D|--2----5---5---6677---5---5---3322-| 
A|--0----3-0-3-0-4455---3-0-3-0-1100-|

G|--2----5-5--6--7--------------------5-5--3--2-|
D|--2----5-5--6--7--------------------5-5--3--2-| 
A|--0----303--4--5--------------------3030-1--0-| 
Tap to rate this tab
# A B C D E F G H I J K L M N O P Q R S T U V W X Y Z