Song name
# A B C D E F G H I J K L M N O P Q R S T U V W X Y Z

Emigrate - Let Me Break tab

Let me break - Emigrate
By HäxMäx



Guitar 1
e|-----------------------------|--------------------------|
B|-----------------------------|--------------------------|
G|-----------------------------|--------------------------|
D|-----------------------------|--------------------------|
A|----3----4----1----3----1----|----3----4----1----3----1-|
E|--1----1----3----3----3---3--|--1----1----3----3----3---|

Guitar 2
e|--------------------|
B|--------------------|
G|------6--8--5-------|
D|---3--6--8--5--6-6--|
A|---3--4--6--3--6-6--|
E|---1-----------4-4--|


Chorus
e|-----------------|-----------------|-----------------|-------------------------------|
B|-----------------|-----------------|-----------------|-------------------------------|
G|----6--8--5------|----6--8--5------|----6--8--5------|----6--5-----------------------|
D|-3--6--8--5--6-6-|-3--6--8--5--6-6-|-3--6--8--5--6-6-|-3--6--5--10/11/10-10-10-10-10-|
A|-3--4--6--3--6-6-|-3--4--6--3--6-6-|-3--4--6--3--6-6-|-3--4--3--10/11/10-10-10-10-10-|
E|-1-----------4-4-|-1-----------4-4-|-1-----------4-4-|-1---------8/-9/-8--8--8--8--8-|


Back to verse

2. Chorus
e|-----------------|-----------------|-----------------|----------------------|
B|-----------------|-----------------|-----------------|----------------------|
G|----6--8--5------|----6--8--5------|----6--8--5------|----6--5--------------|
D|-3--6--8--5--6-6-|-3--6--8--5--6-6-|-3--6--8--5--6-6-|-3--6--5--10/11/10-10-|
A|-3--4--6--3--6-6-|-3--4--6--3--6-6-|-3--4--6--3--6-6-|-3--4--3--10/11/10-10-|
E|-1-----------4-4-|-1-----------4-4-|-1-----------4-4-|-1---------8/-9/-8--8-|


e|-----------------------------------------------------------------|
B|-----------------------------------------------------------------|
G|-----------------------------------------------------------------|
D|-----------------------------------------------------------------|
A|-15-15-13--15-15-13--15-15-13--15-15-13--15-15-13-16~~---15-13---|
E|-----------------------------------------------------------------|


e|-----------------------------------------|
B|-----------------------------------------|
G|-----------------------------------------|
D|-----------------------------------------|
A|-15-15-13--15-15-13--15-13-11-15-11-15---|
E|--------------------------------------13-|

3rd part

e|--8-----6-----8--8/9--|--8----6--------|
B|-----6-----8----------|----6-----8-----|
G|----------------------|--------------8-|
D|----------------------|----------------|	enjoy this awesome song
A|----------------------|----------------|
E|----------------------|----------------|
Tap to rate this tab
 
# A B C D E F G H I J K L M N O P Q R S T U V W X Y Z