Guitaretab - guitar tabs
Song name
# A B C D E F G H I J K L M N O P Q R S T U V W X Y Z

Emigrate - Emigrate tab

Hey guys 

This is my version of the Emigrate album. Thanks to all people taht helped
tabbing this great album!!!

- - - - - - - - - - - - - - - - - - - - - - - - - - - - - - - - - - - - - - - 
         ____                ____    ___           _______   ____
        |      |\    /|  |  |       |   |    /\       |     |
        |____  | \  / |  |  |  __   |___|   /__\      |     |____
        |      |  \/  |  |  |    |  |\     /    \     |     |
        |____  |      |  |  |____|  | \   /      \    |     |____

- - - - - - - - - - - - - - - - - - - - - - - - - - - - - - - - - - - - - - - 
Song 1 : Emigrate
Tuning: Drop C

Main Riff:

Guitar 1
D|-------------------------------------------------------------------|
A|-------------------------------------------------------------------|
F|-------------------------------------------------------------------|
C|-0h3p0---------------------------0h1p0-----------------------------|
G|-------3-0---0-----0-----0---0-3-------3-0---0-----0-----0---0-3---|
C|---------0-0-0-0-0-0-0-0-0-0-0-----------0-0-0-0-0-0-0-0-0-0-0-----|
pm           .   . .   . .   .                .   . .   . .   .   

Guitar 2
D|--------------------------------------------------------------------|
A|--------------------------------------------------------------------|
F|--14~--14~--14~--14~/19~--19~/14~-15~--15~--15~--15~--15/17--17/12--|
C|--------------------------------------------------------------------|
G|--12~--12~--12~--12~/19~--19~/12~-13~--13~--13~--13~--13/15--15/10--|
C|--------------------------------------------------------------------|

D|----------------------------------------------------|
A|----------------------------------------------------|
F|--12~--12~--12~--12/14-14/5/7~--7~--7~--7-7-7-7-7---|
C|----------------------------------------------------|
G|--10~--10~--10~--10/12-12/3/5~--5~--5~--5-5-5-5-5---|
C|----------------------------------------------------|


Verse:

D|-----------------------------|
A|-----------------------------|
F|-----------------------------|
C|-----------------------------|
G|--0---0-----0-----0---0------|
C|--0-0-0-0-0-0-0-0-0-0-0-0-0--|
pm    .   . .   . .   .   . . 


,,He comes... She comes...'' - Part

Lead

D|-----------------------------------------|
A|------------13------------13-------------|
F|-----14------------14------------14------|
C|--12-----12-----12-----12-----12-----12--|
G|-----------------------------------------|
C|-----------------------------------------|

 
Rhythm

D|-----------------------------|
A|-----------------------------|
F|-----------------------------|
C|-----------------------------|
G|--0---0-----0-----0---0------|
C|--0-0-0-0-0-0-0-0-0-0-0-0-1--|
pm    .   . .   . .   .   . .

 
Lead

D|-----------------------------------------|
A|------------13------------13-------------|
F|-----15------------15------------15------|
C|--13-----13-----13-----13-----13-----13--|
G|-----------------------------------------|
C|-----------------------------------------|

 
Rhythm

D|-----------------------------|
A|-----------------------------|
F|-----------------------------|
C|-----------------------------|
G|--1---1-----1-----1---1------|
C|--1-1-1-1-1-1-1-1-1-1-1-1-3--|
pm    .   . .   . .   .   . .

 
Lead

D|-----------------------------------------|
A|------------13------------13-------------|
F|-----12------------12------------12------|
C|--10-----10-----10-----10-----10-----10--|
G|-----------------------------------------|
C|-----------------------------------------|

 
Rhythm

D|-----------------------------|
A|-----------------------------|
F|-----------------------------|
C|-----------------------------|
G|--3---3-----3-----3---3------|
C|--3-3-3-3-3-3-3-3-3-3-3-3-0--|
pm    .   . .   . .   .   . .


Lead

D|-----------------------------------------|
A|------------13------------13-------------|
F|-----11------------11------------11------|
C|--12-----12-----12-----12-----12-----12--|
G|-----------------------------------------|
C|-----------------------------------------|

 
Rhythm

D|-----------------------------|
A|-----------------------------|
F|-----------------------------|
C|-----------------------------|
G|--0---0-----0-----0---0------|
C|--0-0-0-0-0-0-0-0-0-0-0-0-0--|
pm    .   . .   . .   .   . .


Bridge:

D|-----------------------------------||------------------------------------|
A|-----------------------------------||------------------------------------|
F|-----------------------------------||------------------------------------|
C|--3--3--3-3-3-3~---5--5--5-5-5-5~--||--7--0-3--0--3-5--7--0-3--0--3-5----|
G|--3--3--3-3-3-3~---5--5--5-5-5-5~--||--7--0-3--0--3-5--7--0-3--0--3-5----|
C|--3--3--3-3-3-3~---5--5--5-5-5-5~--||--7--0-3--0--3-5--7--0-3--0--3-5----|

D|-----------------------------------|
A|-----------------------------------|
F|-----------------------------------|
C|--3--3--3-3-3-3~---5--5--5-5-5-5~--|
G|--3--3--3-3-3-3~---5--5--5-5-5-5~--|
C|--3--3--3-3-3-3~---5--5--5-5-5-5~--|

- - - - - - - - - - - - - - - - - - - - - - - - - - - - - - - - - - - - - - - 
         ____                ____    ___           _______   ____
        |      |\    /|  |  |       |   |    /\       |     |
        |____  | \  / |  |  |  __   |___|   /__\      |     |____
        |      |  \/  |  |  |    |  |\     /    \     |     |
        |____  |      |  |  |____|  | \   /      \    |     |____

- - - - - - - - - - - - - - - - - - - - - - - - - - - - - - - - - - - - - - -

Song: Wake up
Tuning: Drop D

Intro and verse riff:

e|-----------------------------------------|
B|-----------------------------------------|
G|-----------------------------------------|
D|--------------------------------3-3-5/6--|
A|-------5---------5---------5----3-3-5/6--|
D|--0-0--0----0-0--0----0-0--0----3-3-5/6--|
PM: . .       . .       . .

Fill:

e|---------------------|
B|---------------------|
G|---------------------|
D|-6-0-6-0-6-0-6-0-3-5-|
A|-6-0-6-0-6-0-6-0-3-5-|
D|-6-0-6-0-6-0-6-0-3-5-|

Chorus:

e|------------------------------------------------------------------|
B|------------------------------------------------------------------|
G|*-----------------------------------------------------------------|
D|*-8-8-8-8-8-8-8-8-8-8-8-8-8-8-8-8-7-7-7-7-7-7-7-7-7-7-7-7-7-7-7-7-|
A|--8-8-8-8-8-8-8-8-8-8-8-8-8-8-8-8-7-7-7-7-7-7-7-7-7-7-7-7-7-7-7-7-|
D|--8-8-8-8-8-8-8-8-8-8-8-8-8-8-8-8-7-7-7-7-7-7-7-7-7-7-7-7-7-7-7-7-|

e|---------------------------------------------------------------------|
B|--------------------------------10-10-10-10-10-10-10-10--------------|
G|--------------------------------9-9-9-9-9-9-9-9-9-9-9-9-------------*|
D|8-8-8-8-8-8-8-8-5-5-5-5-5-5-5-5-7-7-7-7-7-7-7-7-7-7-7-7-10-10-10-10-*|
A|8-8-8-8-8-8-8-8-5-5-5-5-5-5-5-5-7-7-7-7-7-7-7-7-7-7-7-7-10-10-10-10--|
D|8-8-8-8-8-8-8-8-5-5-5-5-5-5-5-5-7-7-7-7-7-7-7-7-7-7-7-7-10-10-10-10--|

[ Solo ]

e|---------------------------------------------------------------------------------------|
B|-10-------10-10-------10-------10-10---------13-------13-13-------13-------13-13-------|
G|----11----------11-------11----------11---------14----------14-------14----------14----|
D|-------12----------12-------12----------12---------12----------12-------12----------12-|
A|---------------------------------------------------------------------------------------|
D|---------------------------------------------------------------------------------------|

e|---------------------------------------------------------------------------------------|
B|-10-------10-10-------10-------10-10---------13-------13-13-------13-------13-13-------|
G|----11----------11-------11----------11---------14----------14-------14----------14----|
D|-------12----------12-------12----------12---------12----------12-------12----------12-|
A|---------------------------------------------------------------------------------------|
D|---------------------------------------------------------------------------------------|

e|------------------------------------------------------------------------------------|
B|-15-------15-15-------13-------13-13-------10-------10-10-----10-------10-10--------|
G|----15----------15-------14----------14-------12----------12~----12----------12-----|
D|-------17----------17-------15----------15-------12-----------------10----------10~-|
A|------------------------------------------------------------------------------------|
E|------------------------------------------------------------------------------------|


Rythm in solo:

Rythm 1:
e|------------------------------------|
B|------------------------------------|
G|*-----------------------------------|
D|*----------------------------------*|
A|-----------------------------------*|
E|--0-0-0-0-0-0-0-0-0-0-0-0-3-0-5/6---|


Rythm 2:
e|------------------------------------------------------------------|
B|------------------------------------------------------------------|
G|------------------------------------------------------------------|
D|--8-8-8-8-8-8-8-8-8-8-8-8-8-8-8-8-7-7-7-7-7-7-7-7-7-7-7-7-7-7-7-7-|
A|--8-8-8-8-8-8-8-8-8-8-8-8-8-8-8-8-7-7-7-7-7-7-7-7-7-7-7-7-7-7-7-7-|
D|--8-8-8-8-8-8-8-8-8-8-8-8-8-8-8-8-7-7-7-7-7-7-7-7-7-7-7-7-7-7-7-7-|

e|---------------------------------------------------------------------|
B|---------------------------------------------------------------------|
G|---------------------------------------------------------------------|
D|8-8-8-8-8-8-8-8-5-5-5-5-5-5-5-5-7-7-7-7-7-7-7-7-7-7-7-7-10-10-10-10--|
A|8-8-8-8-8-8-8-8-5-5-5-5-5-5-5-5-7-7-7-7-7-7-7-7-7-7-7-7-10-10-10-10--|
D|8-8-8-8-8-8-8-8-5-5-5-5-5-5-5-5-7-7-7-7-7-7-7-7-7-7-7-7-10-10-10-10--|

- - - - - - - - - - - - - - - - - - - - - - - - - - - - - - - - - - - - - - - 
         ____                ____    ___           _______   ____
        |      |\    /|  |  |       |   |    /\       |     |
        |____  | \  / |  |  |  __   |___|   /__\      |     |____
        |      |  \/  |  |  |    |  |\     /    \     |     |
        |____  |      |  |  |____|  | \   /      \    |     |____

- - - - - - - - - - - - - - - - - - - - - - - - - - - - - - - - - - - - - - -

Song: My World
Tuning: Drop C

Main Riff:

D|------------------------------------------|
A|------------------------------------------|
F|------------------------------------------|
C|-3-----------------3-5--------------------|
G|-3-----------------3-5--------------------|
C|-3-0--0--0-0-0--0--3-5-0--0--0-0-0--0-0-0-|
pm   .  .  . . .  .      .  .  . . .  . . .
   
Fill:

D|-----------------------------------------|
A|-----------------------------------------|
F|-----------------------------------------|
C|-12-11-8-7-10-10-------------------------|
G|-12-11-8-7-10-10-------------------------|
C|-12-11-8-7-10-10-------------------------|

Mute the strings after every chord

Chorus:

D|-------------------------------------------------------------------|
A|-------------------------------------------------------------------|
F|-------------------------------------------------------------------|
C|-8-8-8-8-8-8-8-8-8-8-8-8-8-8-8-8-3-3-3-3-3-3-3-3-5-5-5-5-5-5-5-5---|
G|-8-8-8-8-8-8-8-8-8-8-8-8-8-8-8-8-3-3-3-3-3-3-3-3-5-5-5-5-5-5-5-5---|
C|-8-8-8-8-8-8-8-8-8-8-8-8-8-8-8-8-3-3-3-3-3-3-3-3-5-5-5-5-5-5-5-5---|

D|---------------------------------|
A|---------------------------------|
F|---------------------------------|
C|-----------------3-5-------------|
G|-----------------3-5-------------|
C|-3p0-0-0-0-0-0-0-3-5-0-0-0-0-0-0-|
pm     . . . . . .     . . . . . .

Solo:
    tp   tp   tp   tp   tp            tp   tp  tp   tp   tp
D|-----|----|----|----|----|-------------|----------------------|
A|--10-|-12-|-10-|-13-|-10-|-12-12-10-13-|-15-|-17-|-19-|-/22---|
F|-----|----|----|----|----|-------------|----------------------|
C|-----|----|----|----|----|-------------|----------------------|
G|-----|----|----|----|----|-------------|----------------------|
C|-----|----|----|----|----|-------------|----------------------|

                    x3
D|--10--------------|--10------------------|
A|-----10-9---7-8---|-----10-7-7---7~------|
F|----------7-----7-|------------7---------|
C|------------------|----------------------|
G|------------------|----------------------|
C|------------------|----------------------|

Break:

D|------------------------------|
A|-10~---9~----3~----3~---------|
F|-x-----x-----x-----x----------|
C|-7~----6~----0~----0~---------|
G|------------------------------|
C|------------------------------|

x2, then two times the same, while hitting those notes 16 times

Fill:

-------------------------------------------|
-------------------------------------------|
-------------------------------------------|
-8-8-8-8-8-8-8-8-8-8-8-8-8-8-8-8-----------|
-8-8-8-8-8-8-8-8-8-8-8-8-8-8-8-8-----------|
-8-8-8-8-8-8-8-8-8-8-8-8-8-8-8-8-----------|
   .   .   . .   .   .   . .

-------------------------------------------|
-------------------------------------------|
-------------------------------------------|
-3-3-3-3-3-3-3-5-5-5-5-5-5-5-5-0-----------|
-3-3-3-3-3-3-3-5-5-5-5-5-5-5-5-0-----------|
-3-3-3-3-3-3-3-5-5-5-5-5-5-5-5-0-----------|
   .   .   . .   . .   .   .

-------------------------------------------|
-------------------------------------------|
-------------------------------------------|
-3-----------------3-5---------------------|
-3-----------------3-5---------------------|
-3-0--0--0-0-0--0--3-5-0--0--0-0-0--0-0-0--|
   .  .  . . .  .      .  .  . . .  . . .

Outro:

-------------------------------------------|
-------------------------------------------|
-------------------------------------------|
-8-8-8-8-8-8-8-8-8-8-8-8-8-8-8-------------|
-8-8-8-8-8-8-8-8-8-8-8-8-8-8-8-------------|
-8-8-8-8-8-8-8-8-8-8-8-8-8-8-8-------------|

-------------------------------------------|
-------------------------------------------|
-------------------------------------------|
-3-3-3-3-3-3-3-3-5-5-5-5-5-5-5-5-0~--------|
-3-3-3-3-3-3-3-3-5-5-5-5-5-5-5-5-0~--------|
-3-3-3-3-3-3-3-3-5-5-5-5-5-5-5-5-0~--------|

- - - - - - - - - - - - - - - - - - - - - - - - - - - - - - - - - - - - - - - 
         ____                ____    ___           _______   ____
        |      |\    /|  |  |       |   |    /\       |     |
        |____  | \  / |  |  |  __   |___|   /__\      |     |____
        |      |  \/  |  |  |    |  |\     /    \     |     |
        |____  |      |  |  |____|  | \   /      \    |     |____

- - - - - - - - - - - - - - - - - - - - - - - - - - - - - - - - - - - - - - -

Song: Let me break
Tuning: Drop C

Intro: 

Guitar 1:
D|---------------------------------------------------------|
A|---------------------------------------------------------|
F|-----7----8----5----7----5-------7----8----5----7----5---|
C|---5----5----7----7----7---7~--5----5----7----7----7-----|
G|---------------------------------------------------------|
C|---------------------------------------------------------|


Guitar 2:
D|--------------------|
A|--------------------|
F|-------------------*|
C|---5--1--3--0--8-8-*|
G|---5--1--3--0--8-8--|
C|---5--1--3--0--8-8--|


Chorus:

D|-----------------|-----------------|-----------------|-------------------------------|
A|-----------------|-----------------|-----------------|-------------------------------|
F|-----------------|-----------------|-----------------|-------------------------------|
C|-5--1--3--0--8-8-|-5--1--3--0--8-8-|-5--1--3--0--8-8-|-5--1--0--12/13/12-12-12-12-12-|
G|-5--1--3--0--8-8-|-5--1--3--0--8-8-|-5--1--3--0--8-8-|-5--1--0--12/13/12-12-12-12-12-|
C|-5--1--3--0--8-8-|-5--1--3--0--8-8-|-5--1--3--0--8-8-|-5--1--0--12/13/12-12-12-12-12-|


Bridge:

D|-----------------------------------------------------------------|
A|-----------------------------------------------------------------|
F|-----------------------------------------------------------------|
C|-----------------------------------------------------------------|
G|-----------------------------------------------------------------|
C|--0-12-10---0-12-10---0-12-10---0-12-10---0-12-10/13~~---12-10---|


D|---------------------------------------|
A|---------------------------------------|
F|---------------------------------------|
C|---------------------------------------|
G|---------------------------------------|
C|-0-12-10---0-12-10---0-10-8---0-8-0-5--|

Last Verse + 4. Chorus:

D|--10----8----10-10/11--10-----8--------|
A|-----8----10--------------8-8---10-----|
F|-----------------------------------10~-|
C|---------------------------------------|
G|---------------------------------------|
C|---------------------------------------|

- - - - - - - - - - - - - - - - - - - - - - - - - - - - - - - - - - - - - - - 
         ____                ____    ___           _______   ____
        |      |\    /|  |  |       |   |    /\       |     |
        |____  | \  / |  |  |  __   |___|   /__\      |     |____
        |      |  \/  |  |  |    |  |\     /    \     |     |
        |____  |      |  |  |____|  | \   /      \    |     |____

- - - - - - - - - - - - - - - - - - - - - - - - - - - - - - - - - - - - - - -

Song: In my Tears
Tuning: Drop C

Intro:

D|-------5------| 
A|-----5---5----| 
F|--------------| 
C|--------------| x2
G|---5----------| 
C|--------------|      

D|-------5------| 
A|-----5---5----| 
F|--------------| 
C|--------------| x2
G|---4----------| 
C|--------------| 

D|-------5------| 
A|-----5---5----| 
F|--------------| 
C|--------------| x2
G|---3----------| 
C|--------------| 

D|-------5------| 
A|-----5---5----| 
F|--------------| 
C|--------------| x2
G|---2----------| 
C|--------------| 

Verse

D|-------5------| 
A|-----5---5----| 
F|--------------| 
C|--------------| x2
G|---5----------| 
C|--------------| 

D|-------5------| 
A|-----5---5----| 
F|--------------| 
C|--------------| x2
G|---4----------| 
C|--------------| 

D|-------5------| 
A|-----5---5----| 
F|--------------| 
C|--------------| x2
G|---3----------| 
C|--------------| 

D|-------5------------------| 
A|-----5---5--4~------------| 
F|--------------------------| 
C|----------------0-3--0-3--|
G|---2------------0-3--0-3--| 
C|----------------0-3--0-3--| 

First Break:

D|------------------------------------------------------------------| 
A|------------------------------------------------------------------| 
F|------------------------------------------------------------------| 
C|---12---12---12-12-12-12-12---12---11---11---11-11-11-11-11---11--| 
G|---12---12---12-12-12-12-12---12---11---11---11-11-11-11-11---11--| 
C|---12---12---12-12-12-12-12---12---11---11---11-11-11-11-11---11--| 

D|------------------------------------------------------------------| 
A|------------------------------------------------------------------| 
F|------------------------------------------------------------------| 
C|---10---10---10-10-10-10-10---10---9---9---9-9-9-9-9---9--0-3--0-3| 
G|---10---10---10-10-10-10-10---10---9---9---9-9-9-9-9---9--0-3--0-3| 
C|---10---10---10-10-10-10-10---10---9---9---9-9-9-9-9---9--0-3--0-3| 


Chorus:

D|------------------------------------------------------------------| 
A|------------------------------------------------------------------| 
F|------------------------------------------------------------------| 
C|--12-0-0-12-0-0-12-0-0-12-0-0-12-0-12-0-10-8-8-10-8-8-10-8-8------| 
G|--12-0-0-12-0-0-12-0-0-12-0-0-12-0-12-0-10-8-8-10-8-8-10-8-8------| 
C|--12-0-0-12-0-0-12-0-0-12-0-0-12-0-12-0-10-8-8-10-8-8-10-8-8------| 

D|------------------------------------------------------------------| 
A|------------------------------------------------------------------| 
F|------------------------------------------------------------------| 
C|--7-7-7-7-9-7-7-7------3-3-3-3-3-3-3-3----------------------------| 
G|--7-7-7-7-9-7-7-7--or--3-3-3-3-3-3-3-3----------------------------| 
C|--7-7-7-7-9-7-7-7------3-3-3-3-3-3-3-3----------------------------|


Solo:

x2:

D|--17--16----------------------------------------------------------------| 
A|----------18~--17--15--17-------------------18~-17~-15-17~--------------| 
F|--------------------------16b18r16-14~-/7-----------------14~-----------| 
C|-------------------------------------------------------------14b15r14-12| 
G|------------------------------------------------------------------------| 
C|------------------------------------------------------------------------|
 
Rythm ---> First Break


Variation of the last chorus:

D|------------------------------------------------------------------| 
A|------------------------------------------------------------------| 
F|------------------------------------------------------------------| 
C|---10-8-8-10-8-8-10-8-8-7-7-7-7-9-7-7-7---------------------------| x3
G|---10-8-8-10-8-8-10-8-8-7-7-7-7-9-7-7-7---------------------------| 
C|---10-8-8-10-8-8-10-8-8-7-7-7-7-9-7-7-7---------------------------| 

- - - - - - - - - - - - - - - - - - - - - - - - - - - - - - - - - - - - - - - 
         ____                ____    ___           _______   ____
        |      |\    /|  |  |       |   |    /\       |     |
        |____  | \  / |  |  |  __   |___|   /__\      |     |____
        |      |  \/  |  |  |    |  |\     /    \     |     |
        |____  |      |  |  |____|  | \   /      \    |     |____

- - - - - - - - - - - - - - - - - - - - - - - - - - - - - - - - - - - - - - -

Song: Babe
Tuning: Drop D

Intro (Echo effect):

E|-------------------|
B|-------------------|
G|-7~-7~-7~-7~-7~-7~-|
D|-5~-5~-5~-5~-5-~5~-|
A|-------------------|
D|-------------------|

Verse (Echo Effect):

E|----------|----|-------------|
B|----------|----|-------------|
G|-7~-5~-3~-|-3~-|-7~-5~-3~-3~-|
D|-5~-3~-1~-|-1~-|-5~-3~-1~-1~-|
A|----------|----|-------1~----|
D|----------|----|-------------|

Prechorus:

E|-------|
B|-------|
G|-3~-3~-|
D|-1~-1~-|
A|-1~-1~-|
D|-------|

Chorus:

E|-------------------------------------|
B|-------------------------------------|
G|-------------------------------------|
D|-00000000-11111111-55555555-33333333-|
A|-00000000-11111111-55555555-33333333-|
D|-00000000-11111111-55555555-33333333-|

Solo:

E|--------------------------------------|------------------------------------|----------|
B|--------------------------------------|---------------6/10b-10b---5*-------|----------|
G|-6-7b--6-7-6-6^-7--6-7-6b-3b----3b----|-6b-7b--6-7-6b-----------4----3b----|----------|
D|-----------------------------5b----1~-|---------------------------------5^-|----0-1-3-|
A|--------------------------------------|------------------------------------|-/4-------|
D|--------------------------------------|------------------------------------|----------|

E|--------------------------------------------|--------------------------------|
B|----------------------13b-13b-----13h15-15~-|--------------------------------|
G|-6b-7b-6h7/12b-12b/14---------12b-----------|----5b---4b---2b-3b---2-3b/5b~~-|
D|--------------------------------------------|-/5----5----5-------5-----------|
A|--------------------------------------------|--------------------------------|
D|--------------------------------------------|--------------------------------|

Rhythm -> Chorus

Outro (Echo effect):
E|-------------------|
B|-------------------|
G|-7~-7~-7~-7~-7~-7~-|
D|-5~-5~-5~-5~-5-~5~-|
A|-------------------|
D|-------------------|

- - - - - - - - - - - - - - - - - - - - - - - - - - - - - - - - - - - - - - - 
         ____                ____    ___           _______   ____
        |      |\    /|  |  |       |   |    /\       |     |
        |____  | \  / |  |  |  __   |___|   /__\      |     |____
        |      |  \/  |  |  |    |  |\     /    \     |     |
        |____  |      |  |  |____|  | \   /      \    |     |____

- - - - - - - - - - - - - - - - - - - - - - - - - - - - - - - - - - - - - - -

Song: New York City
Tuning: Drop C

Intro:

D|--------------------------------------------------------------------|
A|--------------------------------------------------------------------|
F|-------0--------------0--------------0--------------0-------0-------|
C|-----1---1---3-x----1---1---3-x----0---0---3-x----0---0-------0-----|
G|---3-------3------3-------3------1-------1------1-------1-------1---|
C|--------------------------------------------------------------------|

Pre-Chorus:

D|-------------------------------------------------------------|
A|-------------------------------------------------------------|
F|-------------------------------------------------------------|
C|--8----7----5----------8----7----5------3------3------3---3--|
G|--6----5----3----------6----5----3------1------1------1---1--|
C|-------------------------------------------------------------|

Fill:

D|-------------------------------------------------------------------|
A|-------------------------------------------------------------------|
F|-----------------------------------\---------------------/---------|
C|----5-----5-----5---5-----5-----5-5\3-----3-3---3---3-3-3/8-8-8-8--|x2
G|--3-3-3-3-3---3-3---3-3-3-3---3-3-3\1-1-1-1-1-1-1---1-1-1/6-6-6-6--|
C|-------------------------------------------------------------------|
pm  .   . .     .       . .     .       . .     .

Chorus:

D|-----------------------------------------------------------------|
A|-----------------------------------------------------------------|
F|--5-5-5-5-5-5-5-5-------3---3-3-5-5-5-5-5-5-5-5-3-3--------------|
C|--5-5-5-5-5-5-5-5-3-3---3---3-3-5-5-5-5-5-5-5-5-3-3---3---3-3-3--|x2
G|--3-3-3-3-3-3-3-3-3-3-0-1---1-1-3-3-3-3-3-3-3-3-1-1-0-3---3-3-3--|
C|------------------3-3-0-----------------------------0-3---3-3-3--|

Verse Fill:

D|------------------------|
A|------------------------|
F|------------------------|
C|------------------------|
G|--10-\5~--6~-----5h6-5~-|
C|------------------------|

Solo:

D|--------------------------------------------------------------------|
A|--------------------------------------------------------------------|
F|--10b12--10b12--10b12--10b12--10b12--10b12--10b12r10p8---10--8~-----|
C|--10b12-------------------------------------------------------------|
G|--------------------------------------------------------------------|
C|--------------------------------------------------------------------|

D|---------------------8--------------------------------|
A|-------------------8----------------------------------|
F|------8---10b12r10------10b12r10p8--10--8b10r8--------|
C|--10--------------------------------------------10~---|
G|------------------------------------------------------|
C|------------------------------------------------------|
[ Tab from: http://www.guitaretab.com/e/emigrate/104757.html ]
D|------------------------------------------------------|
A|--18b20-r19-b20-r19-b20-r19r18p16----18---------------|
F|----------------------------------17----17---/5~------|
C|------------------------------------------------------|
G|------------------------------------------------------|
C|------------------------------------------------------|

D|--18b20-18b20-18b20r18p15--18b20-~~~~~~~--------------|
A|------------------------------------------------------|
F|------------------------------------------------------|
C|------------------------------------------------------|
G|------------------------------------------------------|
C|------------------------------------------------------|

Rhythm ----> Chorus

Outro:

D|----------------------------------|
A|----------------------------------|
F|----------------------------------|
C|--8-8/-3----8-8/-3-----5~---------| 
G|--6-6/-1----6-6/-1-----3~---------|
C|----------------------------------|

- - - - - - - - - - - - - - - - - - - - - - - - - - - - - - - - - - - - - - - 
         ____                ____    ___           _______   ____
        |      |\    /|  |  |       |   |    /\       |     |
        |____  | \  / |  |  |  __   |___|   /__\      |     |____
        |      |  \/  |  |  |    |  |\     /    \     |     |
        |____  |      |  |  |____|  | \   /      \    |     |____

- - - - - - - - - - - - - - - - - - - - - - - - - - - - - - - - - - - - - - -

Song: Resolution
Tuning: Drop D

Main Riff:

E|-------------------------------------|
B|-------------------------------------|
G|-------------------------------------|
D|--4-5-4-2-4-4-4-5-4-2-4-4-2-4-4-4----| x3 
A|--4-5-4-2-4-4-4-5-4-2-4-4-2-4-4-4----|
D|--4-5-4-2-4-4-4-5-4-2-4-4-2-4-4-4----|

E|-------------------------------------|
B|-------------------------------------|
G|-------------------------------------|
D|--4-5-4-2-4-4-4-5-4-2-4-4-2-10-10-10-| 
A|--4-5-4-2-4-4-4-5-4-2-4-4-2-10-10-10-|
D|--4-5-4-2-4-4-4-5-4-2-4-4-2-10-10-10-|

Verse 1&3:

E|----------------------------------------|
B|----------------------------------------|
G|----------------------------------------|
D|--2/4---2-x-2-x-2/4---4/5---5-x-5-x-5/4-|
A|--2/4---2-x-2-x-2/4---4/5---5-x-5-x-5/4-|
D|--2/4---2-x-2-x-2/4---4/5---5-x-5-x-5/4-|

Verse 2:

E|--------------------------------------------|
B|--------------------------------------------|
G|--------------------------------------------|
D|--2/4---2-x-2-x-2/4---4-x-4/5---5-x-5-x-5/4-|
A|--2/4---2-x-2-x-2/4---4-x-4/5---5-x-5-x-5/4-|
D|--2/4---2-x-2-x-2/4---4-x-4/5---5-x-5-x-5/4-|

Chorus:

Guitar 1 with wah:

E|-------------------------------------|
B|-------------------------------------|
G|-------------------------------------|
D|--4-5-4-2-4~--4-5-4-2-4~--2-4-4-4~---| x4
A|-------------------------------------|
D|-------------------------------------|

Guitar 2 ---> Verse

Post-Chorus:

E|-----------------------|        E|----------------------------------|
B|-----------------------|        B|----------------------------------|
G|-----------------------|        G|----------------------------------|
D|---0------2------4-----| x3     D|-5-5-5-5-5-5-5-5-5-5-5-5-5-5-5-5--|
A|---0------2------4-----|        A|-5-5-5-5-5-5-5-5-5-5-5-5-5-5-5-5--|
D|---0------2------4-----|        D|-5-5-5-5-5-5-5-5-5-5-5-5-5-5-5-5--|


Solo:

E|---------------------------|
B|---------------------------|
G|---------------------------|
D|------11b12(slow relase)---|
A|---------------------------|
D|---------------------------|

E|-------------------------------7~------------------7~-6^-----------------|
B|---8^~-7~---7^~-8^~-7^---7^~-7~-----8p7h8-8-7----7~------8--7------------|
G|----------9-----------9----------------------9---------------9~----------|
D|-------------------------------------------------------------------------|
A|-------------------------------------------------------------------------|
D|-------------------------------------------------------------------------|

E|-------------------------------------------------------------------------|
B|---15-17b19----19---19-19---19---19-19---19-19---19-19--19-19r17---------|
G|-------------------------------------------------------------------------|
D|-------------------------------------------------------------------------|
A|-------------------------------------------------------------------------|
D|-------------------------------------------------------------------------|

E|----------------------------------------------------------------------|
B|----------------------------------------------------------------------|
G|---16~--19b21--(chopped by a noise gate or a dive bomb effect)--18~---|
D|----------------------------------------------------------------------|
A|----------------------------------------------------------------------|
D|----------------------------------------------------------------------|

E|-------------------------------------------------------------------------|
B|-------------------------------------------------------------------------|
G|---14~--13~--------------------------------------------------------------|
D|-------------11~-----9~--7~--6~----4~--6~--7~---7/9-9~---9/11~--/2-------|
A|-------------------------------------------------------------------------|
D|-------------------------------------------------------------------------|

- - - - - - - - - - - - - - - - - - - - - - - - - - - - - - - - - - - - - - - 
         ____                ____    ___           _______   ____
        |      |\    /|  |  |       |   |    /\       |     |
        |____  | \  / |  |  |  __   |___|   /__\      |     |____
        |      |  \/  |  |  |    |  |\     /    \     |     |
        |____  |      |  |  |____|  | \   /      \    |     |____

- - - - - - - - - - - - - - - - - - - - - - - - - - - - - - - - - - - - - - -

Song: Temptation
Tuning: Drop C

Intro: x2
(hard to hear the 0-7-0-0 bzw. 4-7-4-4)
D|---------------------------------------------------------------------| 
A|---------------------------------------------------------------------| 
F|---------------------------------------------------------------------| 
C|------7-----7----------7-----7----------7-----7----------7-----7-----| x2
G|----5---5------------5---5------------4---4------------4---4---------| 
C|--0-------0---0-0--0-------0---0-0--4-------4---4-4--4-------4---4-4-|

D|---------------------------------------------------------------------| 
A|---------------------------------------------------------------------| 
F|---------------------------------------------------------------------| 
C|------5-----5----------5-----5----------4-----4----------4-----4-----| x2
G|----5---5------------5---5------------4---4------------4---4---------| 
C|--5-------5---5-5--5-------5---5-5--4-------4---4-4--4-------4---4-4-|

Chorus:

D|------------------------------------------------------------------| 
A|------------------------------------------------------------------| 
F|------------------------------------------------------------------| 
C|--9-9-9-9-9-9-9-9-0-0-0-0-0-0-0-0-5-5-5-5-5-5-5-5-2-2-2-2-2-2-2-2-| 
G|--9-9-9-9-9-9-9-9-0-0-0-0-0-0-0-0-5-5-5-5-5-5-5-5-2-2-2-2-2-2-2-2-| 
C|--9-9-9-9-9-9-9-9-0-0-0-0-0-0-0-0-5-5-5-5-5-5-5-5-2-2-2-2-2-2-2-2-|

Solo:

   
D|----------|--------------------------------------------------------| 
A|--5b7r5---|-----5/10~-10-7/5-5----7--------------------------------| 
F|----------|--4~----------------------6~-----7~--7-9/7---6~---------| 
C|----------|--------------------------------------------------------| 
G|----------|--------------------------------------------------------| 
C|----------|--------------------------------------------------------|

Addings: 4. Time in the first one:

in the end---> F|---after the last 6---7~~~|

         4. Time in the second one:

in the end:

D|-------------------------------0---------|
A|-after the last 6~----4~-----------------|
F|-----------------------------------------|

Rythm in the Solo:

x1:

D|------------------------------------------------------------------------| 
A|------------------------------------------------------------------------| 
F|------------------------------------------------------------------------| 
C|-9-9-9-9-9-9-9-9-12-12-12-12-12-12-12-12-7-7-7-7-7-7-7-7-9-9-9-9-9-9-9-9| 
G|-9-9-9-9-9-9-9-9-12-12-12-12-12-12-12-12-7-7-7-7-7-7-7-7-9-9-9-9-9-9-9-9|
C|-9-9-9-9-9-9-9-9-12-12-12-12-12-12-12-12-7-7-7-7-7-7-7-7-9-9-9-9-9-9-9-9|

x3:

D|------------------------------------------------------------------------| 
A|------------------------------------------------------------------------| 
F|------------------------------------------------------------------------| 
C|-9-9-9-9-9-9-9-9-12-12-12-12-12-12-12-12-7-7-7-7-7-7-7-7-4-4-4-4-4-4-4-4| 
G|-9-9-9-9-9-9-9-9-12-12-12-12-12-12-12-12-7-7-7-7-7-7-7-7-4-4-4-4-4-4-4-4|
C|-9-9-9-9-9-9-9-9-12-12-12-12-12-12-12-12-7-7-7-7-7-7-7-7-4-4-4-4-4-4-4-4|

In the end of the Song:

D|----| 
A|----| 
F|----| 
C|-5~-| 
G|-5~-|
C|-5~-|

Last Verse: (very quiet with Wah-Wah)

D|------------------------------------------------------------------------| 
A|------------------------------------------------------------------------| 
F|------------------------------------------------------------------------| 
C|------------------------------------------------------------------------| 
G|------------------------------------------------------------------------|
C|-0-0-0-0-0-0-0-0-4-4-4-4-4-4-4-4-0-0-0-0-0-0-0-0-4-4-4-4-4-4-4-4--------|
   . . . . . . . . . . . . . . . . . . . . . . . . . . . . . . . . 

D|------------------------------------------------------------------------| 
A|------------------------------------------------------------------------| 
F|------------------------------------------------------------------------| 
C|------------------------------------------------------------------------| 
G|------------------------------------------------------------------------|
C|-5-5-5-5-5-5-5-5-4-4-4-4-4-4-4-4-5-5-5-5-5-5-5-5-4-4-4-4-4-4-4-4--------|
   . . . . . . . . . . . . . . . . . . . . . . . . . . . . . . . .

- - - - - - - - - - - - - - - - - - - - - - - - - - - - - - - - - - - - - - - 
         ____                ____    ___           _______   ____
        |      |\    /|  |  |       |   |    /\       |     |
        |____  | \  / |  |  |  __   |___|   /__\      |     |____
        |      |  \/  |  |  |    |  |\     /    \     |     |
        |____  |      |  |  |____|  | \   /      \    |     |____

- - - - - - - - - - - - - - - - - - - - - - - - - - - - - - - - - - - - - - -

Song: This is what
Tuning: Drop C

Intro:

D|----------|
A|----------|
F|----------|
C|----------|
G|----------|
C|-3*3*3*3*-|

D|-----------------------------------------------------------------------|
A|-----------------------------------------------------------------------|
F|-----------------------------------------------------------------------|
C|--7---------8/7-----------------8/7---------8/7---------5h6p5----------|
G|--5---------6/5-----------------6/5---------6/5---------------6--------|
C|----0-0-0-0-----0-0-0-0-0-0-0-0-----0-0-0-0-----0-0-0-0----------------|
      . . . .     . . . . . . . .     . . . .     . . . . 

Verse:

D|-----------------------------------------------------------------------|
A|-----------------------------------------------------------------------|
F|-----------------------------------------------------------------------|
C|------------------------------------------------------------5h6p5------|
G|--5----------5----------5------5----------5----------5------------6----|
C|--0--0-0-0-0-0--0-0-0-0-0--0-0-0--0-0-0-0-0--0-0-0-0-0--0-0------------|
       . . . .    . . . .    . .    . . . .    . . . .    . . 

Bridge:

D|-----------------------------------------------------------------------|
A|-----------------------------------------------------------------------|
F|-----------------------------------------------------------------------|
C|-------------------------------------------------------------3-3-------|
G|--2----------2----------2------2----------2----------2-------3-3-------|
C|--2--2-2-2-2-2--2-2-2-2-2--2-2-2--2-2-2-2-2--2-2-2-2-2--2-2--3-3-------|
       . . . .    . . . .    . .    . . . .    . . . .    . . 

Chorus:

D|-----------------------------------------------------------------------|
A|-----------------------------------------------------------------------|
F|-----------------------------------------------------------------------|
C|------2---------3--3-3---------------------2---------3--3-3--7--7-7----|
G|-5----2----3----3--3-3--5--5-5--------5----2----3----3--3-3--5--5-5----|
C|-0----2----5----3--3-3--0--0-0--------0----2----5----3--3-3--0--0-0----|

Solo:

D|-----------------------------------------------------------------------|
A|--13b15 (slow rel. while picking)----9~----------8~--------------------|
F|-----------------------------------------------------------------------|
C|-----------------------------------------------------------------------|
G|-----------------------------------------------------------------------|
C|-----------------------------------------------------------------------|

D|-----------------------------------------------------------------------|
A|--------6-8b10r8b10-------------6h8p6----------------------------------|
F|--5-7-x--------------7-7-7-5/0--------7-7--x-7-x---7-7-7-5/0-----------|
C|-----------------------------------------------------------------------|
G|-----------------------------------------------------------------------|
C|-----------------------------------------------------------------------|

D|------------------------------------------------------------------------|
A|---8b10r8--8b10r8-6h8-6----7---------6h8b10--8b10--6h8------------------|
F|-------------------------7---7-5-7~---------------------5h7~--7~--------|
C|------------------------------------------------------------------h10/0-|
G|------------------------------------------------------------------------|
C|------------------------------------------------------------------------|


D|--------------------13-15-15b17-15b17~-17*(slow rel.)15~-p13-------------|
A|----6-8b10-8b10~-/15----------------------------------------15~-15b18-r15|
F|-5-7---------------------------------------------------------------------|
C|-------------------------------------------------------------------------|
G|-------------------------------------------------------------------------|
C|-------------------------------------------------------------------------|

Rhythm ---> Verse

Outro:

Verse + D|--------------------| + Verse with Ending in a Barre 0 on C-G-C
        A|--------------------|
        F|--------------------|
        C|--------------------|x2
        G|-0--0--0--0--0-0--0-|
        C|-0--0--0--0--0-0--0-|
           .  .  .  .  . .  .

- - - - - - - - - - - - - - - - - - - - - - - - - - - - - - - - - - - - - - - 
         ____                ____    ___           _______   ____
        |      |\    /|  |  |       |   |    /\       |     |
        |____  | \  / |  |  |  __   |___|   /__\      |     |____
        |      |  \/  |  |  |    |  |\     /    \     |     |
        |____  |      |  |  |____|  | \   /      \    |     |____

- - - - - - - - - - - - - - - - - - - - - - - - - - - - - - - - - - - - - - -

Song: You can't get enough
Tuning: Drop C

Intro:

D|--5-7-8-7-5-8-10-5-3-5-7-8-7-5-8-10-5-3-----------|
A|--------------------------------------------------|
F|--------------------------------------------------|
C|--------------------------------------------------|
G|--------------------------------------------------|
C|--------------------------------------------------|


Verse:

D|--------------------------------------------|
A|--------------------------------------------|
F|--------------------------------------------|
C|-7---7--7-7--/--3----3--3-3--/--12--12------|
G|-7---7--7-7--/--3----3--3-3--/--12--12------|
C|-7---7--7-7--/--3----3--3-3--/--12--12------|

D|----------------------------------------------|
A|----------------------------------------------|
F|----------------------------------------------|
C|-7---7--7-7-7-7---/-12---12--12-12--\-10--10--|
G|-7---7--7-7-7-7---/-12---12--12-12--\-10--10--|
C|-7---7--7-7-7-7---/-12---12--12-12--\-10--10--|


Pre-chorus:

Guitar 1:
D|-----------------------------------------/
A|-----------------------------------------/
F|-----------------------------------------/
C|--5---5--5-5-5-5---\-3---3--3-3--/-7--7--/
G|--5---5--5-5-5-5---\-3---3--3-3--/-7--7--/
C|--5---5--5-5-5-5---\-3---3--3-3--/-7--7--/

D|------------------------|
A|------------------------|
F|------------------------|
C|--5---5--5-5-5-5---\-3--|
G|--5---5--5-5-5-5---\-3--|
C|--5---5--5-5-5-5---\-3--|


Guitar 2:

D|--7-5-10-12-10-8-7-7h8p7-5--12-------------------|
A|-------------------------------------------------|
F|-------------------------------------------------|
C|-------------------------------------------------|
G|-------------------------------------------------|
C|-------------------------------------------------|


Chorus:

Guitar 1:

D|--------------------------------------------|
A|--------------------------------------------|
F|--------------------------------------------|
C|-7---7--7-7--/--3----3--3-3--/--12--12------|
G|-7---7--7-7--/--3----3--3-3--/--12--12------|
C|-7---7--7-7--/--3----3--3-3--/--12--12------|


D|----------------------------------------------|
A|----------------------------------------------|
F|----------------------------------------------|
C|-7---7--7-7-7-7---/-12---12--12-12--\-10--10--| x2
G|-7---7--7-7-7-7---/-12---12--12-12--\-10--10--|
C|-7---7--7-7-7-7---/-12---12--12-12--\-10--10--| 


Guitar 2:

D|--5-7-8-7-5-8-10-5-3-5-7-8-7-5-8-10-5-3-------|
A|----------------------------------------------|
F|----------------------------------------------|
C|----------------------------------------------| x4
G|----------------------------------------------|
C|----------------------------------------------| 



solo

D|--8-5--8-8/12-8--12-12/15-12--15-15/17~-8-5-12-10-5-/-17-10--8-8h10-|
A|--------------------------------------------------------------------|
F|--------------------------------------------------------------------|
C|--------------------------------------------------------------------|
G|--------------------------------------------------------------------|
C|--------------------------------------------------------------------|

D|---------------------5-----5-----8-5-12-10-5-/-17-10--8-8h10~--|
A|-6-8-6-5-3-1-3-5---3-----3---3---------------------------------|
F|-----------------5-----5-------5-------------------------------|
C|---------------------------------------------------------------|
G|---------------------------------------------------------------|
C|---------------------------------------------------------------|

Guitar 1:

D|----------------------------------------------|
A|----------------------------------------------|
F|----------------------------------------------|
C|-7---7--7-7-7-7---/-12---12--12-12--\-10--10--|
G|-7---7--7-7-7-7---/-12---12--12-12--\-10--10--|
C|-7---7--7-7-7-7---/-12---12--12-12--\-10--10--|



Final Chorus
D|-------------------------------------------|
A|-------------------------------------------|
F|-------------------------------------------|
C|--7---7--7-7-7-7---\-3---3--3-3--/-10--10--|
G|--7---7--7-7-7-7---\-3---3--3-3--/-10--10--|
C|--7---7--7-7-7-7---\-3---3--3-3--/-10--10--|


D|------------------------------------------------------------------|
A|------------------------------------------------------------------|
F|------------------------------------------------------------------|
C|-7---7--7-7-7-7---/-12---12--12-12--\-10--10-------------|---(7)--|
G|-7---7--7-7-7-7---/-12---12--12-12--\-10--10-------------|---(7)--|
C|-7---7--7-7-7-7---/-12---12--12-12--\-10--10-------------|---(7)--|

- - - - - - - - - - - - - - - - - - - - - - - - - - - - - - - - - - - - - - - 
         ____                ____    ___           _______   ____
        |      |\    /|  |  |       |   |    /\       |     |
        |____  | \  / |  |  |  __   |___|   /__\      |     |____
        |      |  \/  |  |  |    |  |\     /    \     |     |
        |____  |      |  |  |____|  | \   /      \    |     |____

- - - - - - - - - - - - - - - - - - - - - - - - - - - - - - - - - - - - - - -

Song: Blood
Tuning: Drop D

Verse:

E|-------------------------------------------------------------------------|
B|---------------12-12~-12~-12~-12~-12~-12/17-17~-12~-12~-12~-12~----------|
G|--------7*--7*-------------------------------------------------------7*--|
D|------7*--7*---------9---9---9---9---9-------------9---9---9---9---7*--7*|
A|---7*------------------------------------------------------------7*------|
D|---7*------------------------------------------------------------7*------|

Chorus 1:


E|-----------------------------------------|
B|-----------------------------------------|
G|-----------------------------------------|
D|--5------5--8--9----2--------2--------2--| x4
A|--5------5--8--9----2--------2--------2--|
D|--5---5--5--8--9----2--2--2--2--2--2--2--|
        .              .  .       .  . 

Chorus 2:

Chorus 1 x2 +

E|------------------------------------------------------------------------|
B|------------------------------------------------------------------------|
G|------------------------------------------------------------------------|
D|--5---5--8--9-------------------------5---5--8--9---2---2---2--2--2---2-| 
A|--5---5--8--9---5---5---5--5--5---5---5---5--8--9---2---2---2--2--2---2-|
D|--5---5--8--9---0---0---0--0--0---0---5---5--8--9---2---2---2--2--2---2-|


E|------------------------------------------------------------------------|
B|------------------------------------------------------------------------|
G|------------------------------------------------------------------------|
D|--5---5--8--9-------------------------5---5--8--9---7---7---7--7--7---7-| 
A|--5---5--8--9---5---5---5--5--5---5---5---5--8--9---7---7---7--7--7---7-|
D|--5---5--8--9---0---0---0--0--0---0---5---5--8--9---7---7---7--7--7---7-|


"Solo":

E|---9~--9---7---9---10-9--7~----7---9---10---9---7---9~----7------|
B|---10~-10--8---10--11-10-8~----8---10--11---10--8---10~---8------|
G|---9~--9---7---9---10-9--7~----7---9---10---9---7---9~----7------|
D|-----------------------------------------------------------------|
A|-----------------------------------------------------------------|
D|-----------------------------------------------------------------|

Rythm ---> Chorus 1

Quiet Part:

Lead:

E|---------------------------------------|
B|-----0-----1-----0-----------0---------|
G|-----------------------2--------0------|
D|--2-----2-----2-----2-----2--------2---| 
A|---------------------------------------|
D|---------------------------------------|

Rhythm:

E|-----7------------7------------7-------|
B|-------8---10~------8---10~------8-----|
G|---9-----9------9-----9------9------9--|
D|---------------------------------------| 
A|---------------------------------------|
D|---------------------------------------|

Last Chorus:

Chorus 1 x2
Chorus 2
Chorus 1 x3 +

E|-------------------------------------------|
B|-------------------------------------------|
G|-------------------------------------------|
D|----5------5--8--9---7---7---7--7--7---7---| 
A|----5------5--8--9---7---7---7--7--7---7---|
D|----5---5--5--8--9---7---7---7--7--7---7---|

- - - - - - - - - - - - - - - - - - - - - - - - - - - - - - - - - - - - - - - 
         ____                ____    ___           _______   ____
        |      |\    /|  |  |       |   |    /\       |     |
        |____  | \  / |  |  |  __   |___|   /__\      |     |____
        |      |  \/  |  |  |    |  |\     /    \     |     |
        |____  |      |  |  |____|  | \   /      \    |     |____

- - - - - - - - - - - - - - - - - - - - - - - - - - - - - - - - - - - - - - -

Song: Help me
Tuning: Drop C

Intro:

Guitar:

D|---------------------------------------------------------------------------|
A|-------10-8---------------8-----10--------10-8-------------8----10---------|
F|--7-7--------10-9-10---7-----7------7--7-------10-9-10--7----7------7------|
c|---------------------------------------------------------------------------|
G|---------------------------------------------------------------------------|
C|---------------------------------------------------------------------------|


Verse:

D|----------------------------------------------------|
A|----------------------------------------------------|
F|---------7---------------------7--------------------|
c|------7------------8--5------7----------8--5--------|
G|---5---------5--8---------5-------5--8--------------|
C|----------------------------------------------------|


Pre Chorus:

Guitar 1:

D|---------------------------------------------------------------------------|
A|--------8b10r8-----------8---8b10r8-----8b10r8-----------------------------|
F|--7-7-----------10-9-10----7---------7----------10-9-----------------------|
c|---------------------------------------------------------------------------|
G|---------------------------------------------------------------------------|
C|---------------------------------------------------------------------------|


Guitar 2:

D|----------------------|
A|----------------------|
F|--------7-------------|
c|-----7-----------8----|
G|---5-------5--8-------|
C|----------------------|

Chorus:


D|-----------------------------------|
A|-----------------------------------|
F|--7-7--7-7-7-7---------------------|
c|--7-7--7-7-7-7--3-3--8-10--8---0---| x3
G|--5-5--5-5-5-5--3-3--8-10--8---0---|
C|----------------3-3--8-10--8---0---|


D|------------------------------|
A|------------------------------|
F|-7-7--7-7-7-7-----------------|
c|-7-7--7-7-7-7---3-3-----7-7---| x1
G|-5-5--5-5-5-5---3-3-----7-7---|
C|----------------3-3-----7-7---|


Bridge:

Guitar 1:

D|---------------------------------------------------------------------------|
A|---------------------------------------------------------------------------|
F|---------------------------------------------------------------------------|
c|--8-------8-7---0-------5-------3-------8------8-7--0-------5------7-------|
G|--8-------8-7---0-------5-------3-------8------8-7--0-------5------7-------|
C|--8(x6)---8-7---0(x8)---5(x8)---3(x8)---8(x6)--8-7--0(x8)---5(x8)--7(x8)---|


Guitar 2:

D|---------------------------------------------------------|
A|--3-5-6--8-8--6-6h8h10---3-5-6--8-8---5-6-5-6-5-6-5------|
F|-----------------------------------------------------7---|
c|---------------------------------------------------------|
G|---------------------------------------------------------|
C|---------------------------------------------------------|


Thanks to all those, that helped with their tabs...

Especially

Rammkopf
Bee-Ay
Scarlet20
Beberasmus
R+-Mensch
Peas 
and Zerstören
Related for Emigrate tab