Song name
# A B C D E F G H I J K L M N O P Q R S T U V W X Y Z

Emigrate - Im Not Giving Up tab

Artist - Emigrate
Song - I'm Not (Giving Up)
Tuning - Drop D

INTRO:
e|--------------------------------------|
B|--------------------------------------|
G|--------------------------------------|
D|--------------------------------------|
A|---5~-4~-------------5~-7~-4~---------|
D|---------5-2-5/7-6------------5-2-5-2-|

Chorus part 1:
e|-----------------------------------|
B|-----------------------------------|
G|-----------------------------------|
D|--2-2---0-2-2-0-2-0-2-2-0-0-2-0-5--|
A|--2-2---0-2-2-0-2-0-2-2-0-0-2-0-5--|
D|--2-2---0-2-2-0-2-0-2-2-0-0-2-0-5--|

Chorus part 2:
e|----------------------------|
B|----------------------------|
G|----------------------------|
D|-0-2-2-0-2-0-2-2-0-0-2-2----|
A|-0-2-2-0-2-0-2-2-0-0-2-2----|
D|-0-2-2-0-2-0-2-2-0-0-2-2----|

This is all i am able to tab out as the full song has not been released yet. But enjoy anyways.
Tap to rate this tab
# A B C D E F G H I J K L M N O P Q R S T U V W X Y Z