Song name
# A B C D E F G H I J K L M N O P Q R S T U V W X Y Z

Emil Bulls - Ad Infinitum tab

Artist: Emil Bulls
Song: Ad Infinitum
Album: Phoenix (Feast Intro)
tabbed by: necriononguitar
e-mail (no SPAM!): tim.rathgen@gmx.de

REAL FANS SUPPORT BANDS BY PURCHASING THEIR CD'S!!!

Tuning: Drop-C


. = Palm-Muted
~ = hold note
^ = vibrate
p = pull off
h = hammer on
/ = slide up
\ = slide down


THIS TAB IS IN GERMAN SINCE ITS BY A GERMAN BAND!

Der tab ist auf jeden Fall noch nicht komplett, das main-solo fehlt, an einigen Stellen 
noch mit dem sound, das weiß ich. aber da es so viel nachfrage nach emil bulls/phoenix 
gab, dacht ich mir, ich stell einen anfang rein... ich hoffe es hilft ;D

"""Live-Intro""" (Live von "The Feast") Der Teil bockt einfach zu spielen
E-------------------------------------------------------------------|
B---------11------10h11-----------------11------10h11---------------|
G------12----------------12----------12---------------12------------|
D---13--------13------------13----12--------12-----------12---------|
A-------------------------------------------------------------------|
E-------------------------------------------------------------------|

E-----------------10------------------------------------------------|
B---------10---------10----10----------11--------10h11--------------|
G------11-----11--------11----------------12-----------12-----------|
D---12-----------------------------12---------12----------12--------|
A-------------------------------------------------------------------|
E-------------------------------------------------------------------|

"""Intro Part I"""
Möglichkeit 1:
Guitar 2
E-------------------------------------------------------------------|
B-------------------------------------------------------------------|
G-------------------------------------------------------------------|
D-------------------------------------------------------------------|
A---5---5---5-4---4---4-5---5---5------[schneller part fehlt]-------|
E-------------------------------------------------------------------|


Guitar 1
E---------------------------------------------------------------------------|
B---------------------------------------------------------------------------|
G---------------------------------------------------------------------------|
D---------------------------------------------------------------------------|
A---5---0-3-5---0-3-5--0-----3---0-3-5---0-3-5--0-----5---0-3-5---0-3-5--0--|
E---5---0-3-5---0-3-5--0-----3---0-3-5---0-3-5--0-----5---0-3-5---0-3-5--0--|
    .   . . .   . . .  .     .   . . .   . . .  .     .   . . .   . . .  .
[schneller part fehlt]

Es wär möglich das beide gitarren das gleiche spielen, was sich aus beiden teilen zsm 
aber ich habs so nich besser hingekriegt
(der schnelle teil fehlt, das tapping is nich meine stärke und ich kann da wenig 
BITTE GERNE ERWEITERUNGEN ODER VERBERSSERUNGEN POSTEN!)

Möglichkeit 2:
Guitar 1+2
E---------------------------------------------------------------------------|
B---------------------------------------------------------------------------|
G---------------------------------------------------------------------------|
D---------------------------------------------------------------------------|
A---5-0-0---5-0-0---5-0-----4-0-0---4-0-0---4-0-----5-0-0---5-0-0---5-0-----|
E-----0-0-----0-0-----0-------0-0-----0-0-----0-------0-0-----0-0-----0-----|
      . .     . .     .       . .     . .     .       . .     . .     .

E-----------------------------------------|
B-----------------------------------------|
G-----------------------------------------|
D-----------------------------------------|
A---5p2p0-4p1p0-7p4p0-5p2p0---------------|
E-----------------------------------------|

"""Intro Part II""" Auf dem Album 0:10
Both Guitars  (das klingt alles noch seltsam...)
E--------------------------------------------------------------------------|
B--------------------------------------------------------------------------|
G--------------------------------------------------------------------------|
D--------------------------------------------------------------------------|
A---5---0-3--5---5-3-0---4---0-0---4---0-0---4---0---5---0-0--5...usw------|
E---5---0-3------5-3-0-------0-0-------0-0-------0-------0-0---------------|
    .   . .      . . .       . .       . .       .       . .

Das Intro endet mit:
E-----------------------------------------|
B-----------------------------------------|
G---14-14--x--12--x--10-10--9-------------|
D---x--x---x--x---x--x--x---x-------------|
A---12-12--x--10--x--8--8---7-------------|
E-----------------------------------------|

"""Verse"""
E---------------------------------------------------------------------------|
B---------------------------------------------------------------------------|
G---------------------------------------------------------------------------|
D---12\------------------------------10\---------------10~-----12--10--8\---|
A---12\--0--0-0---0--0---0--0---0-0--10\---0--0-0---0--10~-(0)-12--10--8\---|
E---12\--0--0-0---0--0---0--0---0-0--10\---0--0-0---0--10~-(0)-12--10--8\---|
         .  . .   .  .   .  .   . .        .  . .   .      (.)

E--------------------------------------------------------------------------|
B--------------------------------------------------------------------------|
G--------------------------------------------------------------------------|
D-------------------------------8\-----------------------------------------|
A---0--0-0---0--0---0--0---0-0--8\--000-000-000--5--0-3-5--0-3-5-----------|
E---0--0-0---0--0---0--0---0-0--8\--000-000-000--5--0-3----0-3-5-----------|
    .  . .   .  .   .  .   . .      ... ... ...  .  . .    . . .


Ich überspring jetzt mal den Pre-Chorus und geh gleich über in den
"""Chorus"""    auf dem Album 1:01
auf den anschlag verzicht ich jetzt mal, der is kla ;D
ich geb immer die anzahl der schläge an, die man als taktvorgabe hat
E--------------------------------------------------------------------------|
B--------------------------------------------------------------------------|
G--------------------------------------------------------------------------|
D---8---------10--------12--------12-----10--------8--------10-------------|
A---8-x8------10-x8-----12-x8-----12-x4--10-x4-----8-x8-----10-x8----------|
E---8---------10--------12--------12-----10--------8--------10-------------|

E--------------------------------|
B--------------------------------|
G--------------------------------|
D---3---------3-----11-----------|
A---3-x8------3-x4--12-x4--------|
E---3---------3-----11-----------|


"""Post-Chorus""" 1:20
E-----------------------------------------------------------------------|
B-----------------------------------------------------------------------|
G-----------------------------------------------------------------------|
D---12\---------------------------10\-----------------------------------|
A---12\--000-000-000-000-000-000--10\--000-000-000-000-000-000----------|
E---12\--000-000-000-000-000-000--10\--000-000-000-000-000-000----------|
         ... ... ... ... ... ...       ... ... ... ... ... ...

E--------------------------------------------------------|
B--------------------------------------------------------|
G--------------------------------------------------------|
D---8\---------------------------8-8-8-8-8-8-8-8---------|
A---8\--000-000-000-000-000-000--8-8-8-8-8-8-8-8---------|
E---8\--000-000-000-000-000-000--8-8-8-8-8-8-8-8---------|
        ... ... ... ... ... ...


"""Interlude""" at 2:30   (dazwischen kommt nix neues)
Ich bin mir relativ sicher, das es der erste bund ist...
E----------------------------------------------------------|
B----------------------------------------------------------|
G----------------------------------------------------------|
D----------------------------------------------------------|
A--1-1-1--1-1-1--1-1---1-1-1--1-1-1--1-1-------------------|
E--1-1-1--1-1-1--1-1---1-1-1--1-1-1--1-1-------------------|
     . .    . .    .     . .    . .    .

"""Breakdown"""  at 2:40
E--------------------------------------------------------|
B--------------------------------------------------------|
G--------------------------------------------------------|
D---0------0------0-----0------0------0------------------|
A---0-0-0--0-0-0--0-0---0-0-0--0-0-0--0-0----------------|
E---0-0-0--0-0-0--0-0---0-0-0--0-0-0--0-0----------------|
      . .    . .    .     . .    . .    .

"""Solo""" at 2:49
E---------------------------------------------------------|
B---8/11---11p10-10---11p10-10---11p10---11~--------------|
G---------------------------------------------------------|
D---------------------------------------------12~---------|
A---------------------------------------------------------|
E---------------------------------------------------------|

E---------------------------------------10--15-14-13-12-11------------|
B---11p10-10---11p10-10---11p10---------------------------------------|
G---------------------------------------------------------------------|
D--------------------------------(12)---------------------------------|
A---------------------------------------------------------------------|
E---------------------------------------------------------------------|

E---------------------------------------------------------------|
B---10h11p10-----10h11p10------10h11p10-----10h11p10------------|
G------------12-----------12------------12-----------12---------|
D---------------------------------------------------------------|
A---------------------------------------------------------------|
E---------------------------------------------------------------|

E--------------------------------------------------------|
B---10h11p10h11-9h10p9h10-8h9p8h9-7h8p7h8----------------|
G--------------------------------------------------------|
D--------------------------------------------------------|
A--------------------------------------------------------|
E--------------------------------------------------------|

DAS MAIN-SOLO FEHLT, BITTE VORSCHLÄGE POSTEN!


"""Outro"""  at 3:59
E------------------------------------------|
B------------------------------------------|
G------------------------------------------|
D------------------------------------------|
A---0--0-0---0-0---0-0~--------------------|
E---0--0-0---0-0---0-0~--------------------|
    .  . .   . .   . .

E------------------------------------------------------------------------|
B------------------------------------------------------------------------|
G------------------------------------------------------------------------|
D---12-------------------------------------------------------------------|
A---12--0--0-0---0-0---0-0---0-0-0----0--0-0---0-0---0-0---0-0-0---------|
E---12--0--0-0---0-0---0-0---0-0-0----0--0-0---0-0---0-0---0-0-0---------|
        .  . .   . .   . .   . . .    .  . .   . .   . .   . . .


and thats it by now...
im going to update things the next days, please just click approve when u read this, its 
it. its actually a tab for a friend who wants to learn more from this awesome 
band. so  just hit the approve button ;D

Cheers...
Tap to rate this tab
# A B C D E F G H I J K L M N O P Q R S T U V W X Y Z