Emil Bulls - Smells Like Rock N Roll Acoustic tab

Artist:    Emil Bulls
Song:      Smells Like Rock N Roll
Album:     The Life Acoustic
Tabbed by: hainzei95

Tuning: Drop D


Intro/Verse:
e |-----------------------------|
B |-----------------------------|
G |-----------------------------|
D |-5-4545454-444--5-45454-2222-| x8
A |-5-4545454-444--5-45454-2222-|
E |-5-4545454-444--5-45454-2222-|

Chorus:

e |-----------------------------|
B |-----------------------------|
G |-4-4-x-6-6-x-2-2-x-4-4-------|
D |-4-4-x-4-4-x-0-0-x-2-2-------| x4
A |-2-2-x-4-4-x-0-0-x-2-2-------|
E |-----x-4-4-x-0-0-x-2-2-------|

Intro/Verse:
e |-----------------------------|
B |-----------------------------|
G |-----------------------------|
D |-5-4545454-444--5-45454-2222-| x6
A |-5-4545454-444--5-45454-2222-|
E |-5-4545454-444--5-45454-2222-|

Chorus:

e |-----------------------------|
B |-----------------------------|
G |-4-4-x-6-6-x-2-2-x-4-4-------|
D |-4-4-x-4-4-x-0-0-x-2-2-------| x4
A |-2-2-x-4-4-x-0-0-x-2-2-------|
E |-----x-4-4-x-0-0-x-2-2-------|

Bridge:

e |----------------------------------------------------|
B |----------55555555----------------------------------|
G |-22222222-44444444-77777777-10-10-10-10-10-10-10-10-|
D |-22222222-22222222-77777777-10-10-10-10-10-10-10-10-| x2
A |-00000000-22222222-55555555-8--8--8--8--8--8--8--8--|
E |----------22222222----------------------------------|

Intro/Verse:
e |-----------------------------|
B |-----------------------------|
G |-----------------------------|
D |-5-4545454-444--5-45454-2222-| x4
A |-5-4545454-444--5-45454-2222-|
E |-5-4545454-444--5-45454-2222-|

Chorus:

e |-----------------------------|
B |-----------------------------|
G |-4-4-x-6-6-x-2-2-x-4-4-------|
D |-4-4-x-4-4-x-0-0-x-2-2-------| x8
A |-2-2-x-4-4-x-0-0-x-2-2-------|
E |-----x-4-4-x-0-0-x-2-2-------|

Intro/Verse:
e |-----------------------------|
B |-----------------------------|
G |-----------------------------|
D |-5-4545454-444--5-45454-2222-| x5
A |-5-4545454-444--5-45454-2222-|
E |-5-4545454-444--5-45454-2222-|

End:
e |---|
B |---|
G |---|
D |-4-| 
A |-4-|
E |-4-|

Tap to rate this tab
 
# A B C D E F G H I J K L M N O P Q R S T U V W X Y Z