Song name
# A B C D E F G H I J K L M N O P Q R S T U V W X Y Z

Emiliana Torrini - Beggars Prayer tab

first verse:

e--------------------------------------------------|
B--------------------------------------------------|
G--3-----1-----6-----5-----5-----5-----5-----5-----|
D--4-----2-----4-----3-----3-----3-----6-----6-----| x2
A--------------------------------------------------|
E--2--2--0--0--6--6--4--4-----4-----4--4--4-----4--|

e-----------------------------------------------------------|
B-----------------------------------------------------------|
G--3-----1-----6-----6----6----6-----6------6----6----6-----|
D--4-----2-----4-----4----4----4-----4------4----4----4-----|
A-----------------------------------------------------------|
E--2--2--0--0--6--6----6----6-----6--5----5----5----5----5--|

second & third verse:


e--------------------------------------------------|
B--------------------------------------------------|
G--3-----1-----6-----5-----5-----5-----5-----5-----|
D--4-----2-----4-----3-----3-----3-----6-----6-----| x2
A--------------------------------------------------|
E--2--2--0--0--6--6--4--4-----4-----4--4--4-----4--|


e----------------------------------------------------------------------|
B----------------------------------------------------------------------|
G--3-----1-----6-----6----6----6-----8------8----10----10---10---10----|
D--4-----2-----4-----4----4----4-----6------6----11----11---11---11----|
A----------------------------------------------------------------------|
E--2--2--0--0--6--6----6----6-----6--8----8----8--9--9----9----9----9--|

fourth verse witch is basicly the half of first verse:

e--------------------------------------------------|
B--------------------------------------------------|
G--3-----1-----6-----5-----5-----5-----5-----5-----|
D--4-----2-----4-----3-----3-----3-----6-----6-----| x2
A--------------------------------------------------|
E--2--2--0--0--6--6--4--4-----4-----4--4--4-----4--|

and end with:

e------|
B------|
G--10--|
D--11--|
A------|
E---9--|

hope it works out for you, it definetly did for me!!
Tap to rate this tab
 
# A B C D E F G H I J K L M N O P Q R S T U V W X Y Z