Song name
# A B C D E F G H I J K L M N O P Q R S T U V W X Y Z

Emiliana Torrini - Bleeder tab

-------------------------------------------------------------------------------
			     Bleeder - Emiliana Torrini
   from the album 'Me and Armini'
-------------------------------------------------------------------------------
Tabbed by: Lewis Strong (8th August 2010)
Email: lewisstrong@live.co.uk

Gorgeous song, fantastic end to a fantastic album.
http://www.songmeanings.net/songs/view/3530822107858736952/
http://www.youtube.com/watch?v=9eGMCA31EmQ 
http://emilianatorrini.com/

Tuning: eBGDAE

capo 2nd fret. (all chords relative to capo)

Intro (played around an open A chord)

e|--------------------------|
B|--0-----------0-----------|
G|--------2-----------2-----|
D|-----2--2--------2--2-----|
A|-----2-----2-----2-----2--|
E|-----------0-----------0--|

Verse (repeat with some variation - finger picking between chords)

e|--------------------------------------------------------------------------|
B|-0-----------0-------------0-----------0-----------2-----2-----2-----2----|
G|-------2-----------2-------------2-----------2-----0-----0-----0-----0----|
D|----2--2--------2--2----------2--2--------2--2--------2--2--------2--2----|
A|----2-----2-----2-----2-------2-----2-----2-----2-----2-----2-----2-----2-|
E|----------0-----------0-------------0-----------0-----------0-----------0-|

Lyrics

Lay thee down.
Park your head upon my pillow.
Naked trees they dress in crows,
Greet the horses coming nearer.

Through the rains that bring you down.
You're a man, humble as a hope.
Oh-oh-oh, lay with me.
Oh, closer to my body.
Oh-oh-oh-oh.
When things go wrong, you'll find you're a bleeder.

You're a man, humble as a hope.
Oh-oh-oh, lay with me.
Oh, closer to my body.
Oh-oh-oh-oh.
When things go wrong, you'll find you're a bleeder.

Oh, when things go wrong, you'll find you're a believer. 
Tap to rate this tab
 
# A B C D E F G H I J K L M N O P Q R S T U V W X Y Z