Song name
# A B C D E F G H I J K L M N O P Q R S T U V W X Y Z

Emiliana Torrini - Heartstopper tab

Heartstopper: Emiliana Torrini

I wrote this tab finding that there were only a few out there and most weren't really 100%
accurate. I'm not saying this one is, but it's pretty darn close!

The intro sort of calls for a call and response between a bass guitar and an electric, but...
if you want to play it all yourself that isn't possible. This is where this tab comes 
in! The
part where it goes 5-3-3-2-1 is ridiculously difficult where as everything else is much easier...
i can't even play that bit myself! So if you have any suggestions as to how to play that part
easily, let me know, most likely i just don't have quick fingers and some of you awesome
guitarists will nail this in no time!

Tune the Lower E string down to C



Intro:

e|-------0--------------------------0-1-0----------------------|
B|---------------------1------------------1-------------1------|
G|---0---------------2---------0----------------------2--------|
D|-----------------3--------------------------------3----------|
A|-3---3---------3-----------3---3----------------3------------|
C|-------------5--------------------------------5--------------|

e|-----------------------------------------|
B|-------------------0---------------------|
G|-------0---------0----------5-------7----|
D|-----2---------0----------7-------8------|
A|---3-------------------/7------/8--------|
C|-0-----------7---------------------------|

Verse:

e|------------------------------------------------------------------------------------|
B|------------------------------------------------------------------------------------|
G|----0----0----0----0----0----0----0----0----0----0----0----0-----0----0----0----0---|
D|------------------------------------------------------------------------------------|
A|-3----3----3----3----2----2----2----2----1----1----1----1-----2----2----2----2------|
C|------------------------------------------------------------------------------------|

Chorus (if you want to sing with chords, rather than the picking pattern that goes with 
the verse [played without lowest string]):

C                    Em
         And when it stops it stops...
 Am        F
         My heart stops beating
Tap to rate this tab
 
# A B C D E F G H I J K L M N O P Q R S T U V W X Y Z