Song name
# A B C D E F G H I J K L M N O P Q R S T U V W X Y Z

Emiliana Torrini - Lifesaver tab

-------------------------------------------------------------------------------
			                      Lifesaver - Emiliana Torrini
-------------------------------------------------------------------------------
Tabbed by:Poschek


Tuning: DADGBE + capo on 1st fret

The picking might be a little difficult at the beginning. Use your thumb
only for the two low strings to be able to do the 3-2-0 baseline.
There are some more variations which you should figure out easily.  
Have fun!


fig.1
e|---------------------------------------------------------0----------|
B|-1---1---1---1---1---1---1---1---1---1---1---1---1---1---1---1------|
G|-0---0---0---0---0---0---0---0---0---0---0---0---0---0-------0------|
D|---4---4---4---4---4---4---4---4---4---4---4---4---4---4---4---4----|
A|-0---------------3--------------------------------------------------|
D|---------------------------------0---------------0------------------|


e|--------------------------------------------------------------------|
B|-1---1---1---1---1---1---1---1---1---1---1---1---1---1---1---1------|
G|-0---0---0---0---0---0---0---0---0---0---0---0---0---0---0---0------|
D|---4---4---4---4---4---4---4---4---4---4---4---4---4---4---4---4----|
A|-0-------------2-3-------3-2-0--------------------------------------|
D|---------------------------------0----------------------------------|

var.1
e|-------------------------------------------------------------0------|
B|-1---1---1---1---1---1---1---1---1---1---1---1---1---1---1---1------|
G|-0---0---0---0---0---0---0---0---0---0---0---0---0---0---0----------|
D|---4---4---4---4---4---4---4---4---4---4---4---4---4---4---4---4----|
A|-0---------------3--------------------------------------------------|
D|---------------------------------0----------------------------------|

var.2
e|-----------------------------------------------------0-------0------|
B|-1---1---1---1---1---1---1---1---1---1---1---1---1---1---1---1------|
G|-0---0---0---0---0---0---0---0---0---0---0---0---0-------0----------|
D|---4---4---4---4---4---4---4---4---4---4---4---4---4---4---4---4----|
A|-0----------(0)2-3-------3-2-0--------------------------------------|
D|---------------------------------0------------(0-0)-----(0)---------|



fig.2
e|--------------0-----0-----0-----0-----0-----0-----------------------|
B|--------------1-----1-----0-----0-----0-----0-----------------------|
G|-----------2-----2-----2-----1-----1-----1-----1--------------------|
D|-----2--4-----------------------------------------------------------|
A|--0-----------------------------------------------------------------|
D|--------------------------------------------------------------------|


fig.3a (repeat 3 times)
e|--------------------------------------------------------------------|
B|--------------------------------------------------------------------|
G|--------------------------------------------------------------------|
D|-4-0-4-0-4-0-4-0-4-0-4-0-4-0-4-0-4-0-4-0-4-0-4-0-2-0-2-0-2-0-2-0----|
A|-2---------------2---------------3---------------3------------------|
D|--------------------------------------------------------------------|


fig.3b
e|-------------------------------------------------0------------------|
B|-----------------------------------------0-----0--------------------|
G|---------------------------------------1-----1----------------------|
D|-4-0-4-0-4-0-4-0-4-0-4-0-4-0-4-0-----2-----2------------------------|
A|-2---------------2-----------------2--------------------------------|
D|---------------------------------2----------------------------------|





************************************
Tap to rate this tab
# A B C D E F G H I J K L M N O P Q R S T U V W X Y Z