Song name
# A B C D E F G H I J K L M N O P Q R S T U V W X Y Z

Emiliana Torrini - Hold Heart tab

Standard tuning, listen to the song to get the rhythm.

Intro Am
e|---------------------------------------------------------------------------|
B|--0-----0-0------0-0-----0------0-----0-0-----0-0-----0--------------------|
G|---------------------------------------------------------------------------|
D|-----2------2--------2-----2-2-----2------2--------2-----2-2---------------|
A|-----1------1--------1-----1-1-----1------1--------1-----1-1---------------|
E|---------------------------------------------------------------------------|
Verse Am                           G                             F
e|---------------------------------3-----3-3-----3-3-----3-------1-----1-1---|
B|--0-----0-0-----0-0------0-------------------------------------------------|
G|---------------------------------------------------------------------------|
D|-----2-------2-------2------2-2-----0-------0-------0-----0-0-----2-------2|
A|-----1-------1-------1------1-1-----0-------0-------0-----0-0-----1-------1|
E|---------------------------------------------------------------------------|
                    E                             Am
e|--1-1-----1----------------------------------------------------------------|
B|------------------2-----2-2-----2-2-----2-------0-----0-0-----0-0-----0----|
G|---------------------------------------------------------------------------|
D|-------2-----2-2-----1-------1-------1-----1-1-----2-------2-------2-------|
A|-------1-----1-1-----0-------0-------0-----0-0-----1-------1-------1-------|
E|---------------------------------------------------------------------------|
      G                             F                             E
e|----3-----3-3-----3-3-----3-------1-----1-1-----1-1-----1-------0-----0-0--|
B|---------------------------------------------------------------------------|
G|---------------------------------------------------------------------------|
D|-2-2----0-------0-------0-----0-0-----2-------2-------2-----2-2-----1------|
A|-1-1----0-------0-------0-----0-0-----1-------1-------1-----1-1-----0------|
E|---------------------------------------------------------------------------|
                      Am                            G
e|----0-0-----0-------------------------------------3-----3-3-----3-3-----3--|
B|--------------------0-----0-0-----0-0-----0--------------------------------|
G|---------------------------------------------------------------------------|
D|-1-------1-----1-1-----2-------2-------2-----2-2-----0-------0-------0-----|
A|-0-------0-----0-0-----1-------1-------1-----1-1-----0-------0-------0-----|
E|---------------------------------------------------------------------------|
      F                             E                        
e|----1-----1-1-----1-1-----1-------0-----0-0-----0-0-----0------------------|
B|---------------------------------------------------------------------------|
G|---------------------------------------------------------------------------|
D|0-0-----2-------2-------2-----2-2-----1-------1-------1-----1-1------------|
A|0-0-----1-------1-------1-----1-1-----0-------0-------0-----0-0------------|
E|---------------------------------------------------------------------------|
Bridge Dm            C             G                             C
e|---------------------------------------------------------------------------|
B|-------------------3-----3-------2-----2-2-----2-2-----2-------3-----3-3---|
G|---0-----0-0-----0---------------------------------------------------------|
D|------------------------------------0-------0-------0-----0-0--------------|
A|------3-------3-------1-----1-1-----------------------------------1--------|
E|------1-------1-------0-----0-0-----3-------3-------3-----3-3-----0--------|
        B7            E                             Dm
e|--------------------0-----0-0-----0-0-----0--------------------------------|
B|----3-2-----2------------------------------------------------------3----3--|
G|--------------------------------------------------0-----0-0-----0----------|
D|---------2-----2-2-----1-------1-------1-----1-1---------------------------|
A|-1-------0-----0-0-----0-------0-------0-----0-0-----3-------3-------1-----|
E|-0---------------------------------------------------1-------1-------0-----|
        G                             C              B7            E
e|------------------------------------------------------------------0-----0-0|
B|------2-----2-2-----2-2-----2-------3-----3-3-----3-2-----2----------------|
G|---------------------------------------------------------------------------|
D|---------0-------0-------0-----0-0---------------------2-----2-2-----1-----|
A|-1-1-----------------------------------1-------1-------0-----0-0-----0-----|
E|-0-0-----3-------3-------3-----3-3-----0-------0---------------------------|

e|----0----------------------------------------------------------------------|
B|---------------------------------------------------------------------------|
G|---------------------------------------------------------------------------|
D|-1--1----------------------------------------------------------------------|
A|-0--0----------------------------------------------------------------------|
E|---------------------------------------------------------------------------|

Instrumental Am
e|---------------------------------------------------------------------------|
B|--0-----0-0------0-0-----0-------------------------------------------------|
G|---------------------------------------------------------------------------|
D|-----2------2--------2-----2-2---------------------------------------------|
A|-----1------1--------1-----1-1---------------------------------------------|
E|---------------------------------------------------------------------------|

Verse Am                           G                             F
e|---------------------------------3-----3-3-----3-3-----3-------1-----1-1---|
B|--0-----0-0-----0-0------0-------------------------------------------------|
G|---------------------------------------------------------------------------|
D|-----2-------2-------2------2-2-----0-------0-------0-----0-0-----2-------2|
A|-----1-------1-------1------1-1-----0-------0-------0-----0-0-----1-------1|
E|---------------------------------------------------------------------------|
                    E                             Am
e|--1-1-----1----------------------------------------------------------------|
B|------------------2-----2-2-----2-2-----2-------0-----0-0-----0-0-----0----|
G|---------------------------------------------------------------------------|
D|-------2-----2-2-----1-------1-------1-----1-1-----2-------2-------2-------|
A|-------1-----1-1-----0-------0-------0-----0-0-----1-------1-------1-------|
E|---------------------------------------------------------------------------|
      G                             F                             E
e|----3-----3-3-----3-3-----3-------1-----1-1-----1-1-----1-------0----------|
B|---------------------------------------------------------------------------|
G|---------------------------------------------------------------------------|
D|-2-2----0-------0-------0-----0-0-----2-------2-------2-----2-2--1---------|
A|-1-1----0-------0-------0-----0-0-----1-------1-------1-----1-1--0---------|
E|---------------------------------------------------------------------------|
Tap to rate this tab
# A B C D E F G H I J K L M N O P Q R S T U V W X Y Z