Song name
# A B C D E F G H I J K L M N O P Q R S T U V W X Y Z

Emiliana Torrini - Heartstopper tab

Song: Heartstopper
Artist: Emiliana Torrini


It took a fruitless hunt for this lovely tab to attempt writing one myself for the first time.
Simple version (no 2nd guitar) but enough to hum along to.

Enjoy! :}

[ Pls send any corrections/queries my way to shewhobangs at gmail.com ]


Intro/Chorus (finger-picking may vary throughout song):

|-------------------------------------------------1----|
|---------------------1--------------------------------|
|----------9--------2------------9h10p9---------2------|
|---------------3---------------------------3----------|
|----10-----------3--------10-----------------3--------|
|--8----8-----1----------8----8-----------1------------|


|-----------------------------------------|
|--------------------3--------------------|
|----------------4-----------5-------7----|
|------------------5-------7-------8------|
|---10---10---/5--------/7------/8--------|
|-8----8----------------------------------|

Verse:

|------------------------------------------------------------------------------------|
|------------------------------------------------------------------------------------|
|------------------------------------------------------------------------------------|
|------------------------------------------------------------------------------------|
|---10---10---10---10---10---10---10---10---10---10---10---10----10---10---10---10---|
|-8----8----8----8----7----7----7----7----6----6----6----6----/7----7----7----7------|
Tap to rate this tab
 
# A B C D E F G H I J K L M N O P Q R S T U V W X Y Z