Song name
# A B C D E F G H I J K L M N O P Q R S T U V W X Y Z

Emilie Mover - Alex tab

-------------------------------------------------------------------------------
			                           Alex - Emilie Mover
-------------------------------------------------------------------------------
Tabbed by: Chris Bishop
Email: blackenigma2@yahoo.com

Tuning: Eb Ab Db Gb Bb eb



Intro: (repeat)

e|-----4-----4-----4-----------0-----0-----0---------------------------------|
B|-----4-----4-----4-----------0-----0-----0---------------------------------|
G|-----5-----5-----5-----------1-----1-----1---------------------------------|
D|--6--6--6--6--6--6--6--4--2--2--2--2--2--2--2--4--6------------------------|
A|---------------------------------------------------------------------------|
E|---------------------------------------------------------------------------|


"...when your heart's on fire"

e|-----0-----0---------------------------------------------------------------|
B|-----0-----0---------------------------------------------------------------|
G|-----1-----1------4-----------------4-4-4-4--x-----------------------------|
D|--2--2--2--2------4-----4-----2-----6-6-6-6--x---------/6------------------|
A|---------------2--2-----4-----2-----6-6-6-6--x-----------------------------|
E|---------------------2--2--0--0--4--4-4-4-4--x---0--2----------------------|


"...when my heart is upside down"

e|-----0-----0---------------------------------------------------------------|
B|-----0-----0---------------------------------------------------------------|
G|-----1-----1------4-----------------------4-4-4-4--x-----------------------|
D|--2--2--2--2------4-----4-----2-2-2-2-----6-6-6-6--x-----------------------|
A|---------------2--2-----4-----2-2-2-2-----6-6-6-6--x-----------------------|
E|---------------------2--2--0--0-0-0-0--4--4-4-4-4--x-----------------------|


Chorus/Outro:

e|---------------------------------------------------------------------------|
B|---------------------------------------------------------------------------|
G|-----------8-8-8-8---6-6-6-6-6-6-6-6---4-4-4-4---8-8-8-8---6-6-6-6---------|
D|-----------9-9-9-9---7-7-7-7-7-7-7-7---6-6-6-6---9-9-9-9---7-7-7-7---------|
A|-----------9-9-9-9---7-7-7-7-7-7-7-7---6-6-6-6---9-9-9-9---7-7-7-7---------|
E|--4--6--7--7-7-7-7---5-5-5-5-5-5-5-5---4-4-4-4---7-7-7-7---5-5-5-5---------|

e|---------------------------------------------------------------------------|
B|---------------------------------------------------------------------------|
G|---------------------------8-8-8-8---8-8-8-8---6-6-6-6---4-4-4-4-----------|
D|---------------------------9-9-9-9---9-9-9-9---7-7-7-7---6-6-6-6-----------|
A|-----------2--4--6--7--9---9-9-9-9---9-9-9-9---7-7-7-7---6-6-6-6-----------|
E|--2--4--5------------------7-7-7-7---6-6-6-6---5-5-5-5---4-4-4-4-----------|

e|---------------------------------------------------------------------------|
B|---------------------------------------------------------------------------|
G|--8-8-8-8---6-6-6-6----------------------------8-8-8-8---8-8-8-8-----------|
D|--9-9-9-9---7-7-7-7----------------------------9-9-9-9---9-9-9-9-----------|
A|--9-9-9-9---7-7-7-7------------2--4--6--7--9---9-9-9-9---9-9-9-9-----------|
E|--7-7-7-7---5-5-5-5---2--4--5------------------7-7-7-7---6-6-6-6-----------|

e|---------------------------------------------------------------------------|
B|---------------------------------------------------------------------------|
G|--6-6-6-6---4-4-4-4---8-8-8-8---6-6-6-6------------------------------------|
D|--7-7-7-7---6-6-6-6---9-9-9-9---7-7-7-7------------------------------------|
A|--7-7-7-7---6-6-6-6---9-9-9-9---7-7-7-7------------2--4--6--7--9-----------|
E|--5-5-5-5---4-4-4-4---7-7-7-7---5-5-5-5---2--4--5--------------------------|

e|---------------------------------------------------------------------------|
B|---------------------------------------------------------------------------|
G|--8-8-8-8---4-4-4-4---8-8-8-8---4-4-4-4---8-8-8-8---4-4-4-4----------------|
D|--9-9-9-9---6-6-6-6---9-9-9-9---6-6-6-6---9-9-9-9---6-6-6-6----------------|
A|--9-9-9-9---6-6-6-6---9-9-9-9---6-6-6-6---9-9-9-9---6-6-6-6----------------|
E|--7-7-7-7---4-4-4-4---7-7-7-7---4-4-4-4---7-7-7-7---4-4-4-4----------------|


************************************

| /   slide up
| \   slide down
| h   hammer-on
| p   pull-off
| ~   vibrato
| +   harmonic
| x   Mute note
| b   Bend
| pb  Pre-bend
| br  Bend release
| pbr Pre-bend release
| brb Bend release bend

************************************
Tap to rate this tab
 
# A B C D E F G H I J K L M N O P Q R S T U V W X Y Z