Guitaretab - guitar tabs
Song name
# A B C D E F G H I J K L M N O P Q R S T U V W X Y Z

Emilija Kokic - Sto Mi Znacis Ti tab

Hallo, my name is Vladimir, Im from Serbia.
...very sentimental song!
If you found this song nice, I suggest you to find live version of this song,
its called "Emilia - Sto Mi Znacis Ti (live, Mp Rvg)", it sounds better!
Enjoy!





               Emilija Kokic - Sto mi znacis ti
                   (album: Emilia, 1994)




Intro:


e|---5--3--2--3--3-----5--3--2--3--3-----3--2--0--2--2-----3--2--0--2--2----|
B|----5--5--5--5--5-----5--5--5--5--5-----3--3--3--3--3-----3--3--3--3--3---|
G|-----4--4--4--4--4-----4--4--4--4--4-----2--2--2--2--2-----2--2--2--2--2--|
D|--------------------------------------------------------------------------|
A|--------------------------------------------------------------------------|
E|--------------------------------------------------------------------------|


e|---5--3--2--3--3-----3--3--3--2--2--2--3--3--3-------2-0-3-2----|
B|----5--5--5--5--5-----5--5-----4--4-----5--5--5---5-4-----------|
G|-----4--4--4--4--4-----4--4-4---4--4-4---4--4--5-4--------------|
D|----------------------------------------------------------------|
A|----------------------------------------------------------------|
E|----------------------------------------------------------------|


INTRO SOLO 2X:


     Em           D               C           B7              Em
e|---3-0---3-0----2---------3-2---------0-3---2-2-2-3-5---3-2-3-0-0--0--0---|
B|-------3----------3-1-0-1-------1-0-1-------------------------------------|
G|--------------------------------------------------------------------------|
D|--------------------------------------------------------------------------|
A|--------------------------------------------------------------------------|
E|--------------------------------------------------------------------------|


[ Tab from: http://www.guitaretab.com/e/emilija-kokic/106936.html ]
Em
Samoj sebi se bojim priznati
D
pogled ne mogu s tebe skinuti
C                  B7
cijeli zivot bi te mogla gledati
   Em
i sebicno te ja nikom ne dati



    Em
I oprostice mi Bog
                 D
sto si meni sve moje molitve
  C             B7
miliun godina trebala bi ja
      Em
da ti ispricam



         G                 G7
Sto mi znacis ti (sto mi znacis ti)
         Em
sto mi znacis ti
Cm                          G
ti si zrak sto moram disat ja
Cm                   G
da te nema ja bi umrla



         Em          C
Volim te ja, volim te ja
       G                           D
i da u isto vrijeme na dva mjesta mogu biti ja
        Em       C
s tobom bi stajala
       G                        D
i da u isto vrijeme dva zivota mogu zivjet ja
        B7                Em
s tobom bi zivjela... ououoooh


INTRO SOLO 2X


Cijeli zivot bi te mogla ljubiti
i svako jutro se kraj tebe buditi
miliun godina trebala bi ja
da ti ispricam


Sto mi znacis ti
sto mi znacis ti
ti si zrak sto moram disat ja
da te nema ja bi umrla


         Em          C
Volim te ja, volim te ja
       G                           D
i da u isto vrijeme na dva mjesta mogu biti ja
     Em        C
s tobom bi stajala
       G                        D
i da u isto vrijeme dva zivota mogu zivjet ja
     Em        C
s tobom bi zivjela
       G                           D
I da u isto vrijeme na dva mjesta mogu biti ja
     Em        C
s tobom bi stajala
       G                       D
i da u isto vrijeme dva zivota mogu zivjet ja
        B7                Em
s tobom bi zivjela... ououoooh.




Used chords:

         EADGBe
Em-------022000
C--------x32010
G--------320033
D--------xx0232
G7-------353433
Cm-------x35543
B7-------x21202


Any comments post me at tordajav@yahoo.com

http://www.emilijakokic.hr/