Song name
# A B C D E F G H I J K L M N O P Q R S T U V W X Y Z

Emily And The Woods - It Was Right There tab

Capo 2
Intro/Verse
D|---0----0----5-------0-0---5-------------|
A|---0----0----5-------0-0---5-------------|
F#|--0----4----5-------0-4---5-------------|
D|---3----0----0-------3-0---0-------------|
A|---0----4----0-------0-4---0-------------|
D|---0----0----0-------0-0---0-------------|

Verse 1
What would you say? 
If I called you up and kept no words at bay
And what would you feel 
If I wrote it down and those words were real

Verse 2
Some words from me 
Mean a lot so dont take them lightly 
And some words from you 
Would help me show me what to do 

D|----0----0---0----0---0--0--0-------------|
A|----5----7---5----7---5--5--5-------------|
D|----0----0---0----0---0--5--5-------------|
F#|---5----7---5----7---5--5--5-------------|
A|----0----0---0----0---0--0--5-------------|
D|----0----0---0----0---0--0--5-------------|

Bridge
Cause I saw you far off 
Then I saw you close up 
Oh tell me you will turn back 
tell me youll turn back youll turn back 

D|-----12-----5------7----10---12------|
A|-----12-----0------0----0----12------|
D|-----0------5------7----10---0-------|
F#|----0------5------7----0----0-------|
A|-----0------0------0----0----0-------|
D|-----0------0------0----0----0-------|

Chorus
Oh it was right there 
Oh it was right there 
And oh it was right there 
And you didnt take it did you dare
Tap to rate this tab
# A B C D E F G H I J K L M N O P Q R S T U V W X Y Z