Song name
# A B C D E F G H I J K L M N O P Q R S T U V W X Y Z

Emily Elbert - Do Without tab

(/) Slide Up  (\) Slide Down  (h) Hammer On  (p) Pull Off  (b) Bend (r) Release (v) Vibrato
Verse
E|--0--0--|
B|--2--3--|
G|--2--2--|
D|--2--0--|
A|--0--2--|
E|--0-----|


Pre Chorus
E|--0--0--|
B|--0--0--|
G|--6--2--|
D|--7--3--|
A|--7--3--|
E|--5--1--|


Chorus (second time through dont play the last chord)
E|--9---0---7--5--5-----0--|
B|--10--10--5--5--5--7--2--|
G|--11--11--6--6--7--7--2--|
D|--12--0---7--7--7--7--2--|
A|-------------------x--0--|
E|-------------------5-----|


Riff
E|---------------------------0---|
B|--------0--2--5--7--9--10--10--|
G|-----2---------------------11--|
D|---------------------------12--|
A|--0------------------------0---|
E|---------------------------0---|


Bridge
E|--5--5----5--0----0--5--0--0--|
B|--7--7----7--0----0--7--0--2--|
G|--5--5----5--6----6--5--4--2--|
D|--7--7----7--7----7--7--5--2--|
A|--5--5----5--7----7--5--5--0--|
E|--5--5--3/5--5--3/5--5--3-----|
Tap to rate this tab
 
# A B C D E F G H I J K L M N O P Q R S T U V W X Y Z