Song name
# A B C D E F G H I J K L M N O P Q R S T U V W X Y Z

Emily Jane White - Liza tab

|-----------Intro-----------|
e|-------------------------------------------------|x2
B|----6-----6-----6-----------8------8-----8-------|
G|-7-----7-----7-----7-----9-----9------9-----9----|
D|-------------------------------------------------|
A|---7-----7-----7-----------9-----9-----9---------|
E|5-----5-----5-----5--5/-7-----7------7-----7--7\-|

e|-----------------------|
B|----10-----10----10----|
G|-11----11----11----11--|
D|-----------------------|
A|--11----11----11-------|
E|9-----9-----9-----9--9\|

e|-----------------------|x3
B|----6-----------3------|
G|-7-----7-----4-----4---|
D|-----------------------|
A|---7-----------4-------|
E|5-----5--5\-2-----2--2/|

|-------------Verse 1-------------|

e|-------------------------------------------------|x6
B|----6-----6-----6-----------8------8-----8-------|
G|-7-----7-----7-----7-----9-----9------9-----9----|
D|-------------------------------------------------|
A|---7-----7-----7-----------9-----9-----9---------|
E|5-----5-----5-----5--5/-7-----7------7-----7--7\-|

e|-----------------------|
B|----10-----10----10----|
G|-11----11----11----11--|
D|-----------------------|
A|--11----11----11-------|
E|9-----9-----9-----9--9\|

e|-----------------------|x3
B|----6-----------3------|
G|-7-----7-----4-----4---|
D|-----------------------|
A|---7-----------4-------|
E|5-----5--5\-2-----2--2/|


|-------------Verse 2-------------|

e|-------------------------------------------------|x6
B|----6-----6-----6-----------8------8-----8-------|
G|-7-----7-----7-----7-----9-----9------9-----9----|
D|-------------------------------------------------|
A|---7-----7-----7-----------9-----9-----9---------|
E|5-----5-----5-----5--5/-7-----7------7-----7--7\-|

e|-----------------------|
B|----10-----10----10----|
G|-11----11----11----11--|
D|-----------------------|
A|--11----11----11-------|
E|9-----9-----9-----9--9\|

e|-----------------------|x3
B|----6-----------3------|
G|-7-----7-----4-----4---|
D|-----------------------|
A|---7-----------4-------|
E|5-----5--5\-2-----2--2/|


|-------------Verse 3-------------|

e|-----------------------------------------------|x6
B|-6--6--6--6--6--6--6--6--8--8--8--8--8--8--8--8|
G|7--7--7--7--7--7--7--7--9--9--9--9--9--9--9--9-|
D|-----------------------------------------------|
A|7--7--7--7--7--7--7--7--9--9--9--9--9--9--9--9-|
E|5--5--5--5--5--5--5--5--7--7--7--7--7--7--7--7-|

e|------------------------|
B|-10-10-10-10-10-10-10-10|
G|11-11-11-11-11-11-11-11-|
D|------------------------|
A|11-11-11-11-11-11-11-11-|
E|9--9--9--9--9--9--9--9--|

e|----------------|x12
B|-6-6-6-6-3-3-3-3|
G|7-7-7-7-4-4-4-4-|
D|----------------|
A|7-7-7-7-4-4-4-4-|
E|5-5-5-5-2-2-2-2-|


|-------------Outtro-------------|


e|-------------------------------------------------|x6
B|----6-----6-----6-----------8------8-----8-------|
G|-7-----7-----7-----7-----9-----9------9-----9----|
D|-------------------------------------------------|
A|---7-----7-----7-----------9-----9-----9---------|
E|5-----5-----5-----5--5/-7-----7------7-----7--7\-|

e|-----------------------|
B|----10-----10----10----|
G|-11----11----11----11--|
D|-----------------------|
A|--11----11----11-------|
E|9-----9-----9-----9--9\|

e|-----------------------|x5
B|----6-----------3------|
G|-7-----7-----4-----4---|
D|-----------------------|
A|---7-----------4-------|
E|5-----5--5\-2-----2--2/|
Tap to rate this tab
 
# A B C D E F G H I J K L M N O P Q R S T U V W X Y Z