Song name
# A B C D E F G H I J K L M N O P Q R S T U V W X Y Z

Emily Kinney - Expired Lovers tab

                                          Artist - Emily Kinney
                                         ***********************
                                          Song - Expired Lovers 
                                         ***********************                                  
                                          Tabbed By - Ayreon77
                                         **********************



https://www.youtube.com/watch?v=tzn0eXOHeuk

Live at Live Nation NYC Office

CAPO 6 Fret
************

--------------------------------------------------
INTRO
******
 Play this with the Ohhhs                
e|-----------------|-----------------|
B|-----------------|-----------------|
G|-----------------|-----------------|
D|---2---2---2---2-|---2---2---2---2-|
A|-2---2---2---2---|-0---0---0---0---|
E|-----------------|-----------------|

Ohhh Ohhh Oh

Ohhh Ohhh Oh

Ohhh Ohhh Oh

Ohhh Ohhh Oh


--------------------------------------------------
VERSE 1
********
I don't want you anymore
  RIFF 1
e|---------------------------------|
B|---------------------------------|
G|---------------------------------|
D|---2---2---2---2---2---2---2---2-|
A|-2---2---2---2---2---2---2---2---|
E|---------------------------------|

Summer's gone, and now I'm sure
  RIFF 2
e|---------------------------------|
B|---------------------------------|
G|---------------------------------|
D|---2---2---2---2---2---2---2---2-|
A|-0---0---0---0---0---0---0---0---|
E|---------------------------------|

The box behind my bed I've saved
  RIFF 3
e|---------------------------------|
B|---------------------------------|
G|---1---1---1---1---1---1---1---1-|
D|-2---2---2---2---2---2---2---2---|
A|---------------------------------|
E|---------------------------------|

I took out with the trash today
  RIFF 4
e|---------------------------------|
B|---------------------------------|
G|---------------------------------|
D|---2---2---2---2---2---2---2---2-|
A|-0---0---0---0---0---0---0---0---|
E|---------------------------------|


--------------------------------------------------
VERSE 2
********
Oh, the truth is: I've met someone new
RIFF 1

The truth is: you probably have, too
RIFF 2

The truth is: I can't stand your face
Riff 3

When I think of all the love we made
Riff 4


--------------------------------------------------
CHORUS
*******
Oh, we took a walk- we took a walk out by the Hudson River
RIFF 3

The human breaks, you need to please, and make my shoulders shiver
RIFF 4

You asked me, "Baby girl, how long until my heart recovers
RIFF 3

I'm sure the answer's "Never
RIFF 4

You're a top-act shelf, out-of-date, too-late, expired lover

e|---------|---------|---------------------------------|
B|---------|---------|---------------------------------|
G|---1---1-|---------|---------------------------------|
D|-2---2---|---2---2-|---2---2---2---2---2---2---2---2-|
A|---------|-0---0---|-2---2---2---2---2---2---2---2---|
E|---------|---------|---------------------------------|


--------------------------------------------------
INTRO
******
e|-----------------|-----------------|
B|-----------------|-----------------|
G|-----------------|-----------------|
D|---2---2---2---2-|---2---2---2---2-|
A|-2---2---2---2---|-0---0---0---0---|
E|-----------------|-----------------|

Ohhh Ohhh Oh

Ohhh Ohhh Oh

Ohhh Ohhh Oh

Ohhh Ohhh Oh



VERSE 3
********
No, I'm not the only girl to save
RIFF 1

Items past their expiration date
RIFF 2

I sucked you up, 'til my stomach churned
RIFF 3

My throat closed, my eyes would burn
RIFF 4

Someone told me that love was suppose to hurt
RIFF 3

But, now I've learned.
RIFF 4


--------------------------------------------------
VERSE 4
********
And, I don't want this anymore
RIFF 1

Like hand-me-downs, waitin' by my door
RIFF 2

I kept you around, but I don't know what for
RIFF 3

So, I took a walk all by myself from river side to south street
RIFF 3                               RIFF 4


--------------------------------------------------
CHORUS
*******
It's 2 a.m.; I've let you in, and whenever your here, I can't sleep
RIFF 2

Is there anyway to save you and me
RIFF 3

Baby, now that I've discovered, enjoy takin' all my covers, this is your last sleep over
RIFF 2                                RIFF 1                             RIFF 2

You're a top-act shelf, out-of-date, too-late, expired lover

e|---------|---------|---------------------------------|
B|---------|---------|---------------------------------|
G|---1---1-|---------|---------------------------------|
D|-2---2---|---2---2-|---2---2---2---2---2---2---2---2-|
A|---------|-0---0---|-2---2---2---2---2---2---2---2---|
E|---------|---------|---------------------------------|


--------------------------------------------------
OUTRO
******

 Play this with the Ohhhs                
e|-----------------|-----------------|
B|-----------------|-----------------|
G|-----------------|-----------------|
D|---2---2---2---2-|---2---2---2---2-|
A|-2---2---2---2---|-0---0---0---0---|
E|-----------------|-----------------|

Ohhh Ohhh Oh

Ohhh Ohhh Oh

No No



ENJOY...........
 
Tap to rate this tab
# A B C D E F G H I J K L M N O P Q R S T U V W X Y Z