Song name
# A B C D E F G H I J K L M N O P Q R S T U V W X Y Z

Emily Kokal - Hymn tab

-------------------------------------------------------------------------------
                             Hymn - Emily Kokal
-------------------------------------------------------------------------------
http://www.warpaintwarpaint.com

Tuning: Standard

Intro: Am (repeat 8 times)

e|------------------|
B|--1---1-----------|
G|----------2-------|
D|-----2--2---------|
A|--0---------------|
E|------------------|

Verse & Chorus: Dm, Dm, Am, Em (repeat throughout the song) 

e|-1----1----1----1--------------------------------------------|
B|---------2----------2--1---1-----0--0------------------------|
G|----2--2------2---2-----------2--------0---------------------|
D|-0---------0-------------2--2------2--2----------------------|
A|-----------------------0---------2---------------------------|
E|-------------------------------------------------------------|

************************************
Tap to rate this tab
# A B C D E F G H I J K L M N O P Q R S T U V W X Y Z