Song name
# A B C D E F G H I J K L M N O P Q R S T U V W X Y Z

Emily Kokal - Despite The Crossfire tab

--------------------------------------------------------------------------
                   DESPITE THE CROSSFIRE - Emily Kokal
--------------------------------------------------------------------------Tabbed by: Sophie Ahmed
E-mail: sophie.ahmed01@gmail.com

INTRO

   F        C           Am
e|-1----------------------------------------------------------------|
B|-1--------1-----------1-------------------------------------------|
G|-2-0h2p0--0-----------2-------------------------------------------|
D|-3------0-20h2-0-----2-------------------------------------------|
A|----------3--------2----3-0---------------------------------------|
E|------------------3-3---------------------------------------------|

   F        C           Am
e|-1----------------------------------------------------------------|
B|-1--------1-----------1-------------------------------------------|
G|-2-0h2p0--0-----------2-------------------------------------------|
D|-3------0-20h2-0-----2-------------------------------------------|
A|----------3--------2----3-0---------------------------------------|
E|------------------3-3---------------------------------------------|

Then strum F, C and Am in the verses, and inbetween the 2 verses play this intro again!
Tap to rate this tab
 
# A B C D E F G H I J K L M N O P Q R S T U V W X Y Z