Song name
# A B C D E F G H I J K L M N O P Q R S T U V W X Y Z

Emily Osment - All The Way Up tab

Itīs Standart Tuning
I Think Itīs Right

Verse 4x
e|-------------------------------------------|
B|-------------------------------------------|
G|-------------6-6-6-6----8-8-6-6----9-9-9-9-|
D|--4-4-4-4----6-6-6-6----8-8-8-6----9-9-9-9-|
A|--4-4-4-4----4-4-4-4----6-6-6-6----7-7-7-7-|
E|--2-2-2-2----------------------------------|


Chorus 4x                  At the 4x
e|------------------       e|------------------------|
B|------------------       B|------------------------|
G|-------6---------4       G|-------6---------4----6-|
D|--4----6----2----4       D|--4----6----2----4----6-|
A|--4----4----2----2       A|--4----4----2----2----4-|
E|--2---------0-----       E|--2---------0-----------|


Verse 4x
e|-------------------------------------------|
B|-------------------------------------------|
G|-------------6-6-6-6----8-8-8-8----9-9-9-9-|
D|--4-4-4-4----6-6-6-6----8-8-8-8----9-9-9-9-|
A|--4-4-4-4----4-4-4-4----6-6-6-6----7-7-7-7-|
E|--2-2-2-2----------------------------------|

Bridge 1x
e|----------------------------------|
B|----------------------------------|
G|--8---------4----8---------4----6-|
D|--8----4----4----8----4----4----6-|
A|--6----4----2----6----4----2----4-|
E|-------2--------------2-----------|


Chorus 4x
e|-------------------|
B|-------------------|
G|-------6---------4-|
D|--4----6----2----4-|
A|--4----4----2----2-|
E|--2---------0------|


Outro
e|------------------------------|
B|------------------------------|
G|-------4---------4----6----8--|
D|--2----4----2----4----6----8--|
A|--2----2----2----2----4----6--|
E|--0---------0-----------------|
Tap to rate this tab
# A B C D E F G H I J K L M N O P Q R S T U V W X Y Z