Song name
# A B C D E F G H I J K L M N O P Q R S T U V W X Y Z

Emily Osment - Once Upon A Dream tab

Itīs Standart Tuning
I Think Itīs right


Intro 2x
e|-------------------------|
B|-------------------------|
G|--6----3---------8-------|
D|--6----3----4----8----6--|
A|--4----1----4----6----6--|
E|------------2---------4--|
------------p.m------------|


Verse 1x
e|----------------------------------------------------------------------|
B|----------------------------------------------------------------------|
G|--6--------------8---------6----8---------8----6----8----4----6-------|
D|--6----6----4----8----6----6----8----4----8----6----8----4----6----6--|
A|--4----6----4----6----6----4----6----4----6----4----6----2----4----6--|
E|-------4----2---------4--------------2-----------------------------4--|


Chorus 1x
e|------------------------------------------------------------|
B|------------------------------------------------------------|
G|--3----6---------8----3----6-------------------3----8-------|
D|--3----6----4----8----3----6----4----6----4----3----8----6--|
A|--1----4----4----6----1----4----4----6----4----1----6----6--|
E|------------2-------------------2----4----2--------------4--|


Interlude 1x
e|-------------------------|
B|-------------------------|
G|--6----3---------8-------|
D|--6----3----4----8----4--|
A|--4----1----4----6----4--|
E|------------2---------6--|
-----------p.m-------------|


Verse 1x
e|------------------------------------------------------------|
B|------------------------------------------------------------|
G|--6--------------8---------6----8---------3----4----6-------|
D|--6----6----4----8----6----6----8----4----3----4----6----6--|
A|--4----6----4----6----6----4----6----4----1----2----4----6--|
E|-------4----2---------4--------------2-------------------4--|


Chorus 1x
e|--------------------------------------------------------------------------------|
B|--------------------------------------------------------------------------------|
G|--3----6---------8----3----6-------------------3----8---------3----6---------8--|
D|--3----6----4----8----3----6----4----6----4----3----8----6----3----6----4----8--|
A|--1----4----4----6----1----4----4----6----4----1----6----6----1----4----4----6--|
E|------------2-------------------2----4----2--------------4--------------2-------|


Chorus 1x
e|------------------------------------------------------------|
B|------------------------------------------------------------|
G|--3----6-------------------3----8----3---------3----8-------|
D|--3----6----4----6----4----3----8----3----4----3----8----6--|
A|--1----4----4----6----4----1----6----1----4----1----6----6--|
E|------------2----4----2-------------------2--------------4--|


Interlude 2x
e|-------------------------|
B|-------------------------|
G|--4----3---------8-------|
D|--4----3----4----8----4--|
A|--6----1----4----6----4--|
E|------------2---------6--|
----------p.m--------------|
Tap to rate this tab
 
# A B C D E F G H I J K L M N O P Q R S T U V W X Y Z