Song name
# A B C D E F G H I J K L M N O P Q R S T U V W X Y Z

Emily Osment - All The Way Up tab

Emily Osment - All The Way Up
=============================

Here's a correct tab of this nice song by Emily Osment.
And this is how I play it: http://www.youtube.com/watch?v=wMQ_k4T_p5o

Tuning: EADGBe



### INTRO ### 00:00 ###
e|-----------|
B|--[Drums]--|
G|-----------|
D|--four-----|
A|-----bars--|
E|-----------|



### VERSE ### 00:07 ###
e|--------------------------|------------------------------|
B|--------------------------|------------------------------|
G|--------6666--8888--9999--|--------6666--8888--9999-99\--|
D|--4444--6666--8888--9999--|--4444--6666--8888--9999-99\--|
A|--4444--4444--6666--7777--|--4444--4444--6666--7777-77\--|
E|--2222--------------------|--2222------------------------|

e|-------------------------------|------------------------------|
B|-------------------------------|------------------------------|
G|--------3333--4444--6666--x6\--|--------6666--8888--99999999--|
D|--4444--3333--4444--6666--x6\--|--4444--6666--8888--99999999--|
A|--4444--1111--2222--4444--x4\--|--4444--4444--6666--77777777--|
E|--2222-------------------------|--2222------------------------|



### CHORUS A ### 00:35 ###
e|------------------------------|-[1st][2nd]-|-[4th]--------|
B|------------------------------|-[3rd]------|--------------|
G|-----------66666666-99999999--|------------|--------------| 4x
D|--44444444-66666666-99999999--|--99999999--|--9999-11111--|
A|--44444444-44444444-77777777--|--99999999--|--9999-11111--|
E|--22222222--------------------|--77777777--|--7777-9-9-9--|



### VERSE ### 01:03 ###
e|--------------------------|------------------------------|
B|--------------------------|------------------------------|
G|--------6666--8888--9999--|--------6666--8888--9999-99\--|
D|--4444--6666--8888--9999--|--4444--6666--8888--9999-99\--|
A|--4444--4444--6666--7777--|--4444--4444--6666--7777-77\--|
E|--2222--------------------|--2222------------------------|

e|-------------------------------|------------------------------|
B|-------------------------------|------------------------------|
G|--------3333--4444--6666--x6\--|--------6666--88888889-9-99\--|
D|--4444--3333--4444--6666--x6\--|--4444--6666--88888889-9-99\--|
A|--4444--1111--2222--4444--x4\--|--4444--4444--66666667-7-77\--|
E|--2222-------------------------|--2222-------->>>>>>>---------|



### CHORUS A ### 01:32 ###



### BRIDGE ### 01:59 ###
e|-----------|-----------|-----------|-----------|    |--------------------|
B|-----------|-----------|-----------|-----------|    |--------------------|
G|--88-88----|-----------|--44-44----|--44-44----| 2x |--6666666666666666--|
D|--88-88----|--44-44----|--44-44----|--44-44----|    |--6666666666666666--|
A|--66-66----|--44-44----|--22-22----|--22-22----|    |--4444444444444444--|
E|-----------|--22-22----|-----------|-----------|    |--------------------|



### CHORUS B ### 02:17 ###
e|--------------------------|-----------------------|
B|--------------------------|-----------------------|
G|--------6-----------4-----|--------6--------------|
D|--4-----6-----2-----4-----|--4-----6-----2-----2--|
A|--4-----4-----2-----2-----|--4-----4-----2-----2--|
E|--2-----------0-----------|--2-----------0-----0--|



### CHORUS A ### 02:31 ###



### OUTRO ### 02:58 ###
e|--------------------|----------------------|
B|--------------------|----------------------|
G|------------4---66--|------------4---6-8\--|
D|--2---------4---66--|--2---------4---6-8\--|
A|--2---7-6-4-2---44--|--2---7-6-4-2---4-6\--|
E|--0-----------------|--0-------------------|
Tap to rate this tab
# A B C D E F G H I J K L M N O P Q R S T U V W X Y Z