Song name
# A B C D E F G H I J K L M N O P Q R S T U V W X Y Z

Emilys Army - Youre Not Superior To Me tab

this is my first tab, and there might be some errors.
EMILY'S ARMY ON ULTIMATE GUITAR <3 LOOOOVE this band!!!
any questions, faabyy21@hotmail.com
Official site: http://myspace.com/emilysarmy101

Intro

e-----------------------------------------|
B-----------------------------------------|
G-14--14--14-14-14-14---------------------|
D-14--14--14-14-14-14-11--11-11--11-11-11-| X2
A-12--12--12-12-12-12-11--11-11--11-11-11-|
E---------------------09--09-09--09-09-09-|

verse

e-----------------------------------------|
B-----------------------------------------|
G-14--14--14-14-14-14---------------------|
D-14--14--14-14-14-14-11--11-11--11-11-11-| X2
A-12--12--12-12-12-12-11--11-11--11-11-11-|
E---------------------09--09-09--09-09-09-|

e---------------------------------------------------------------|
B---------------------------------------------------------------|
G-14--14--14-14-14-14----------------------13--13--13-13-13-12~-|
D-14--14--14-14-14-14-11--11-11--11-11-11--13--13--13-13-13-12~-|
A-12--12--12-12-12-12-11--11-11--11-11-11--11--11--11-11-11-10~-|
E---------------------09--09-09--09-09-09-----------------------|



e-----------------------------------------|
B-----------------------------------------|
G-14--14--14-14-14-14---------------------|
D-14--14--14-14-14-14-11--11-11--11-11-11-| X2
A-12--12--12-12-12-12-11--11-11--11-11-11-|
E---------------------09--09-09--09-09-09-|

e-----------------------------------------|
B-----------------------------------------|
G-14--14--14-14-14-14---------------------|
D-14--14--14-14-14-14-11--11-11--11-11-11-| X2
A-12--12--12-12-12-12-11--11-11--11-11-11-|
E---------------------09--09-09--09-09-09-|

e---------------------------------------------------------------|
B---------------------------------------------------------------|
G-14--14--14-14-14-14----------------------13--13--13-13-13-12~-|
D-14--14--14-14-14-14-11--11-11--11-11-11--13--13--13-13-13-12~-|
A-12--12--12-12-12-12-11--11-11--11-11-11--11--11--11-11-11-10~-|
E---------------------09--09-09--09-09-09-----------------------|

CHORUS

e-------------------------------------------|
B-------------------------------------------|
G-------------------------------------------|
D-14--14--14-14--14-14-11--11--11-11--11-11-| x3
A-14--14--14-14--14-14-11--11--11-11--11-11-|
E-12--12--12-12--12-12-09--09--09-09--09-09-|

e------------------------------------------------------|
B------------------------------------------------------|
G-------------------------------------------13--13--13-|
D-14--14--14-14--14-14-11--11--11-11--11-11-11--13--13-|
A-14--14--14-14--14-14-11--11--11-11--11-11-11--11--11-|
E-12--12--12-12--12-12-09--09--09-09--09-09------------|

Verse

e-----------------------------------------|
B-----------------------------------------|
G-14--14--14-14-14-14---------------------|
D-14--14--14-14-14-14-11--11-11--11-11-11-| X4
A-12--12--12-12-12-12-11--11-11--11-11-11-|
E---------------------09--09-09--09-09-09-|

e--------------------------------------------------------------|
B--------------------------------------------------------------|
G-14--14--14-14-14-14----------------------13--13--13-13-13-12-|
D-14--14--14-14-14-14-11--11-11--11-11-11--13--13--13-13-13-12-|
A-12--12--12-12-12-12-11--11-11--11-11-11--11--11--11-11-11-10-|
E---------------------09--09-09--09-09-09----------------------|

e-----------------------------------------|
B-----------------------------------------|
G-14--14--14-14-14-14---------------------|
D-14--14--14-14-14-14-11--11-11--11-11-11-| X2
A-12--12--12-12-12-12-11--11-11--11-11-11-|
E---------------------09--09-09--09-09-09-|

e-----------------------------------------|
B-----------------------------------------|
G-14--14--14-14-14-14---------------------|
D-14--14--14-14-14-14-11--11-11--11-11-11-| X3
A-12--12--12-12-12-12-11--11-11--11-11-11-|
E---------------------09--09-09--09-09-09-|

e--------------------------------------------------------------|
B--------------------------------------------------------------|
G-14--14--14-14-14-14----------------------13--13--13-13-13-12-|
D-14--14--14-14-14-14-11--11-11--11-11-11--13--13--13-13-13-12-|
A-12--12--12-12-12-12-11--11-11--11-11-11--11--11--11-11-11-10-|
E---------------------09--09-09--09-09-09----------------------|

chorus

e-------------------------------------------|
B-------------------------------------------|
G-------------------------------------------|
D-14--14--14-14--14-14-11--11--11-11--11-11-| x3
A-14--14--14-14--14-14-11--11--11-11--11-11-|
E-12--12--12-12--12-12-09--09--09-09--09-09-|

e------------------------------------------------------|
B------------------------------------------------------|
G-------------------------------------------13--13--13-|
D-14--14--14-14--14-14-11--11--11-11--11-11-11--13--13-|
A-14--14--14-14--14-14-11--11--11-11--11-11-11--11--11-|
E-12--12--12-12--12-12-09--09--09-09--09-09------------|

e-----------------------------------------|
B-----------------------------------------|
G-14--14--14-14-14-14---------------------|
D-14--14--14-14-14-14-11--11-11--11-11-11-| X4
A-12--12--12-12-12-12-11--11-11--11-11-11-|
E---------------------09--09-09--09-09-09-|

e--------------------------------------------------------------|
B--------------------------------------------------------------|
G-14--14--14-14-14-14----------------------13--13--13-13-13-12-|
D-14--14--14-14-14-14-11--11-11--11-11-11--13--13--13-13-13-12-|
A-12--12--12-12-12-12-11--11-11--11-11-11--11--11--11-11-11-10-|
E---------------------09--09-09--09-09-09----------------------|

e-------------------------------------------|
B-------------------------------------------|
G-------------------------------------------|
D-14--14--14-14--14-14-11--11--11-11--11-11-| x3
A-14--14--14-14--14-14-11--11--11-11--11-11-|
E-12--12--12-12--12-12-09--09--09-09--09-09-|

e------------------------------------------------------|
B------------------------------------------------------|
G-------------------------------------------13--13--13-|
D-14--14--14-14--14-14-11--11--11-11--11-11-11--13--13-|
A-14--14--14-14--14-14-11--11--11-11--11-11-11--11--11-|
E-12--12--12-12--12-12-09--09--09-09--09-09------------|

Tap to rate this tab
 
# A B C D E F G H I J K L M N O P Q R S T U V W X Y Z