Song name
# A B C D E F G H I J K L M N O P Q R S T U V W X Y Z

Emilys Army - Regan Macneil tab

-------------------------------------------------------------------------------
			     Regan MacNeil - Emily's Army
-------------------------------------------------------------------------------
Tabbed by: GreenScuz

Tuning: Standard

Intro/verse/chorus(Yes those are elevens)
e|---------------------------------------|
B|---------------------------------------|
G|-4-4-444-111111-111111-8-8-888-999-999-|
D|-4-4-444-111111-111111-8-8-888-999-999-|
A|-2-2-222-9-9-9--9-9-9--6-6-666-777-777-|
E|---------------------------------------|

Riff thingy
e|---------------------------------------|
B|---------------------------------------|
G|-4-4-444-111111-111111-9-9-xxx-9-9-999-|
D|-4-4-444-111111-111111-9-9-xxx-9-9-999-|
A|-2-2-222-9-9-9--9-9-9--7-7-xxx-7-7-777-|
E|---------------------------------------|

Bridge
e|---------------------|    
B|---------------------|
G|-13-1313131199999911-|
D|-13-1313131199999911-| 
A|-11-1111119-7777779--|

Bridge part 2
e|----------|
B|----------|
G|-8--9--11-|
D|-8--9--11-|
A|-6--7--9--|
E|----------|

Alternate verse (Played with a ska rhythm)
e|-----------------------------------|
B|--4-4-4-4-11111111-8-8-8-8-9-9-9-9-|
G|--4-4-4-4-11111111-8-8-8-8-9-9-9-9-|
D|--4-4-4-4-11111111-8-8-8-8-9-9-9-9-|
A|-----------------------------------|
E|-----------------------------------|

Outro
e|----------|
B|----------|
G|-4----4---|
D|-4----4---|
A|-2----2---|
E|----------|

Just listen to the song to figure out when to play what 'cause it's really easy.
Tap to rate this tab
# A B C D E F G H I J K L M N O P Q R S T U V W X Y Z