Song name
# A B C D E F G H I J K L M N O P Q R S T U V W X Y Z

Emilys Army - Ho-lloween tab

-------------------------------------------------------------------------------
			     Ho-Lloween - Emily's Army
-------------------------------------------------------------------------------
Tabbed by: GreenScuz

Tuning: Standard

Intro
e|-5--------5--------5--------5--------|
B|-5--------5--------5--------5--------|
G|-6--------6--------6--------6--------|
D|-7--------7--------7--------7--------|
A|-7--------7--------7--------7--------|
E|-5--------5--------5--------5--------|

Intro-Guitar 2
e|---------------------------------|
B|---------------------------------|
G|-14-------14-------14-------14---|
D|---------------------------------|
A|-12-------12-------12-------12---|
E|---------------------------------|

Main riff
e|-------------------------------|
B|-------------------------------|
G|-------------------------------|
D|-7-7-777777777-8-8-888-333-222-|
A|-7-7-777777777-8-8-888-333-222-|
E|-5-5-555555555-6-6-666-111-000-|

Main riff-Guitar 2
e|--------------------------------------------------|
B|--------------------------------------------------|
G|-14-14-141414141414141414-15-15-151515-101010-999-|
D|--------------------------------------------------|
A|-12-12-121212121212121212-13-13-131313-8-8-8--777-|
E|--------------------------------------------------|

Verse
e|---------------------|
B|---------------------|
G|-----------7----9----|
D|-7----4----7----9----|
A|-7----4----5----7----|
E|-5----2--------------|

Ba bababa ba baba ba
e|------------------------------|
B|------------------------------|
G|------------9-99999-888875----|
D|-7-77777777-9-99999-888875----|
A|-7-77777777-7-77777-666653----|
E|-5-55555555-------------------|

Chorus
e|----------------------------------------------------|
B|----------------------------------------------------|
G|---------999-999-7-7-777-----------------999-999-7--|
D|-7-7-777-999-999-7-7-777-777-777-7-7-777-999-999-7--|
A|-7-7-777-777-777-5-5-555-777-777-7-7-777-777-777-5--|
E|-5-5-555-----------------555-555-5-5-555------------|

It's pretty easy and you can probably figure out when to play
what on your own if you just listen to the song, but just in case you can't or 
you're just too lazy;

Intro x1
Main riff x2
Verse x2
Main riff x2
Verse x2
Ba bababa ba baba ba x2
Chorus x1
Main riff (without guitar 2) x2
Verse x4
Ba bababa ba baba ba x2
Chorus x1
Main riff x4 (without guitar 2 the first time)
Tap to rate this tab
 
# A B C D E F G H I J K L M N O P Q R S T U V W X Y Z