Song name
# A B C D E F G H I J K L M N O P Q R S T U V W X Y Z

Emilys Army - Strictly For The Birds tab

This is a tab for Strictly For The Birds by Emily's Army off of the album Don't Be a
Dick.  This is my first tab so I'm sorry if its not the greatest. I did this by ear so the
strumming may not be right and there may be a few flaws/  I would advise playing along 
with the the song until you get the speed down.  Here are all the different parts, and at
the bottom is the order their played. Thanks!
           - Avery

*Intro/1st Verse

|---------------------|
|---------------------|
|---4------4-----4----|
|---4------4-----4----|    *pick slide*
|---2------2-----2----|
|---------------------|


*Chorus

|----------------------------------------------------------------------------|
|----------------------------------------------------------------------------|
|----6--------9---------11--------9-9-11-11-4-4-44-8-7-6-6-66689-9-9-9-9-----|
|----6--(16x)--9--(16x)--11--(16x)--9-9-11-11-4-4-44-8-7-6-6-66689-9-9-9-9---|
|----4--------7---------9---------7-7--9--9- 2-2-22-6-5-4-4-44467-7-7-7-7----|
|----------------------------------------------------------------------------|

--------------------------------------------------------|
--------------------------------------------------------|
--4-4-4448-88888888-9-9-11-11-4-4-44-8-7-6-6-66689------|
--4-4-4448-88888888-9-9-11-11-4-4-44-8-7-6-6-66689------|
--2-2-2226-66666666-7-7- 9--9- 2-2-22-6-5-4-4-44467-----|
--------------------------------------------------------|

*2nd Verse

|------------------------------------------|
|------------------------------------------|
|----4-4-444-9-99-999-------- -9-99-999----|
|----4-4-444-9-99-999-6-6-666-9-99-999-----|
|----2-2-222-7-77-777-6-6-666-7-77-777-----|
|----------------------4-4-444-------------|

*Interlude
|------------------------------|
|------------------------------|
|----4-4-4-4/9-----------------|
|----4-4-4-4/9---6-6-6-6/14----|
|----2-2-2-2/7---6-6-6-6/14----|
|----------------4-4-4-4/12----|

*Chorus 2

|-------|-------------------------|
|-------|-------------------------|
|----4--|-4--------9-9----- 9-9---|
|----4--|-4----9-9-9-9-6-6-9-9----|
|----2--|-2----9-9-7-7-6-6-7-7----|
|-------|------7-7----- 4-4-------|
(first chord of the second part is played by a 2nd guitar)

*Ending
|-------------------------|
|-------------------------|
|---4--------9-9-------9- |
|---2----9-9-9-9-6-----9- |
|---2----9-9-7-7-6-----7- |
|--------7-7-----4------- |


Song Order:
Intro/1st Verse
Chorus
2nd Verse (4x)
Chorus
2nd Verse (2x)
Interlude (4x)
2nd Chorus (3x)
Ending
Tap to rate this tab
 
# A B C D E F G H I J K L M N O P Q R S T U V W X Y Z