Song name
# A B C D E F G H I J K L M N O P Q R S T U V W X Y Z

Emilys Army - If Our Music Plays Again tab

INTRO

e|-----------------------------------------------------------|
B|-----------------------------------------------------------|
G|----7--7--7h9p7--7--7--7h9p7--7--7--7h9p7------------------|
D|--------------------------------------------9--9--9--9-----|
A|-----------------------------------------------------------|
E|-----------------------------------------------------------|

e|------------------------------------------------------------|
B|------------------------------------------------------------|
G|---7--7--7h9p7--7--7--7h9p7---------------------------------|
D|------------------------------9--7--5----5------------------|
A|---------------------------------------7--------------------|
E|------------------------------------------------------------|    x2



She's so pretty ....
e|----------------------------------------------|
B|----------------------------------------------|
G|----------------------5-5-5-5-----------------|
D|---5-x-5-5-x-5-5-x-5-5-5-5-5------------------|
A|---5-x-5-5-x-5-5-x-5-3-3-3-3------------------|
E|---3-x-3-3-x-3-3-x-3--------------------------|  x8




I wonder what will happen down the road ....
e|---------------------------------------------------|
B|---------------------------------------------------|
G|---7-x-7-7-7------------5-x-5-5--------------------|
D|---7-x-7-7-7-5-x-5-5-5-5-x-5-5---4h5p4-------------|
A|---5-x-5-5-5-5-x-5-5-5-3-x-3-3---------5h6p4-------|
E|--------------3-x-3-3-3----------------------------|



Ten years go by and change will start to show ....
e|---------------------------------------------------|
B|---------------------------------------------------|
G|---7-x-7-7-7------------5-x-5-5-5-5-5-5-5----------|
D|---7-x-7-7-7-5-x-5-5-5-5-x-5-5-5-5-5-5-5-----------|
A|---5-x-5-5-5-5-x-5-5-5-3-x-3-3-3-3-3-3-3-----------|
E|--------------3-x-3-3-3----------------------------|



And I'll write my soul away to you if our music plays again ....
e|-------------------------------------------------------------|
B|-------------------------------------------------------------|
G|-----5--5--7--7--9--9--9--9----5--5--5--5--------------------|
D|-----5--5--7--7--9--9--9--9----5--5--5--5--5--5--5--5--------|
A|-----3--3--5--5--7--7--7--7----3--3--3--3--5--5--5--5--------|
E|--------------------------------------------3--3--3--3-------|  x2


e|-----------------------------------------------------------|
B|-----------------------------------------------------------|
G|----7--7--7h9p7--7--7--7h9p7--7--7--7h9p7------------------|
D|--------------------------------------------9--9--9--9-----|
A|-----------------------------------------------------------|
E|-----------------------------------------------------------|

e|---------------------------------------------------------|
B|---------------------------------------------------------|
G|---7--7--7h9p7--7--7--7h9p7------------------------------|
D|------------------------------9--7--5----5---------------|
A|---------------------------------------7-----------------|
E|---------------------------------------------------------|



Picking up the rain ....
e|----------------------------------------------|
B|----------------------------------------------|
G|----------------------5-5-5-5-----------------|
D|---5-x-5-5-x-5-5-x-5-5-5-5-5------------------|
A|---5-x-5-5-x-5-5-x-5-3-3-3-3------------------|
E|---3-x-3-3-x-3-3-x-3--------------------------|  x8




Solo
e|--------------------------------------------------------------------------|
B|----------------------------------------------------------------8---------|
G|-------7------------------------------5/7-7---7h9-7--------7-9-9----------|
D|---7/8---8b-------1/5-5-5-5-----------------9------------9----------------|
A|-----------------------------7-5------------------------------------------|
E|--------------------------------------------------------------------------|
Tap to rate this tab
# A B C D E F G H I J K L M N O P Q R S T U V W X Y Z