Guitaretab - guitar tabs
Song name
# A B C D E F G H I J K L M N O P Q R S T U V W X Y Z

Eminem - The Way I Am tab

Eminem
Way I Am
Tabbed By: mjwk_1986@yahoo.com
[ Tab from: http://www.guitaretab.com/e/eminem/119593.html ]
E-------12-------13-------13-------10-------10-------12-------12-|
B----13-------13-------12-------12-------12-------13-------13----|
G-14-------14-------13-------13-------13-------14-------14-------|
D----------------------------------------------------------------|
A----------------------------------------------------------------|
E----------------------------------------------------------------|

E------8------8-------10-------10-----7-----7-----5-----5------ }
B---10-----10------12-------12------9-----9-----5-----5--------.}repeat
G-9------9------13-------13-------7-----7-----5-----5---------- }through
D-------------------------------------------------------------- }whole
A--------------------------------------------------------------.}song
E-------------------------------------------------------------- }
Related for The Way I Am tab