Song name
# A B C D E F G H I J K L M N O P Q R S T U V W X Y Z

Eminem - Superman tab

e|--------------------------------|
B|--------------------------------|
G|-----2-------0-------0----------|
D|----2-------2-------0-------2---|
A|---0---0-2-3-------2-------2----|
E|--------------------------0-----|

e|-----------3----3-7-------------|
B|----------5----5----------------|
G|-----2---5----4-----------------|
D|----2---------------------------|
A|---0----------------------------|
E|--------------------------------|


These are just the chords that will fit over the whole song
liten to how many times theyre played


e|--------------------------------|
B|--------------------------------|
G|---------5-----4----------------|
D|---7-----5-----4------2---------|
A|---7-----3-----2------2---------|
E|---5------------------0---------|



This is the part played over the chorus

e|-----------5--7--5--------------|
B|--5--7--8------------8--7--5----|
G|--------------------------------|
D|--------------------------------|
A|--------------------------------|
E|--------------------------------|

          
Tap to rate this tab
# A B C D E F G H I J K L M N O P Q R S T U V W X Y Z