Song name
# A B C D E F G H I J K L M N O P Q R S T U V W X Y Z

Eminem - Rock Bottom tab

Standard Tuning

E---11-10-11-------11-10-11-------11-10-11---------------------------|
B------------11b~~-----------12b~~-----------12-11-9-----------------|
G--------------------------------------------------11-10-10h11p10b~~-|
D--------------------------------------------------------------------|
A--------------------------------------------------------------------|
E--------------------------------------------------------------------|

continued...
E---------------------------------------------------------------------|
B---------9-11-12-11b~~-11-9-7-9b~~-9--7-6-7/11b~~-9b~~-7b~~-6-4-3-4--|
G--10-11--------------------------------------------------------------|
D---------------------------------------------------------------------|
A---------------------------------------------------------------------|
E---------------------------------------------------------------------|
This is the Intro and Chorus

you can e mail me at revilation@angryforlife.com
Tap to rate this tab
# A B C D E F G H I J K L M N O P Q R S T U V W X Y Z