Song name
# A B C D E F G H I J K L M N O P Q R S T U V W X Y Z

Eminem - Fuck You tab

                        Eminem- Fuck You
                    Tabbed by- Jack O'Connor


Standard Tuning

1------------------------------------------------------------------]
2---------------10---------------7--7------------------------------]
3----9--11--12--------12-11-9----x--x------9--11--12-12-11-11--9--7]
4--------------------------------4--4------------------------------]
5------------------------------------------------------------------]
6------------------------------------------------------------------]

1--------------------------------------------------------------]
2-7--7---------------------------7--7--10--7--7------7--7--7--7]
3-x--x------4--5--7--9---11---12-x--x------x--x--11--x--x--x--x]
4-4--4---------------------------4--4------4--4------4--4--4--4]
5--------------------------------------------------------------]
6--------------------------------------------------------------]




its perfect..beleive me i heard it
riff 4 tha whole song
peace out kids
Tap to rate this tab
# A B C D E F G H I J K L M N O P Q R S T U V W X Y Z