Song name
# A B C D E F G H I J K L M N O P Q R S T U V W X Y Z

Eminem - Mocking Birds tab

Artist: Eminem
Album: Encore (Aftermath/Interscope Records 2004)
Song: "Mockingbird" Prod. by Eminem, Luis Resto (co)
Tabbed by witmachine@yahoo.com

I know this track is just keyboard and drums, but
since it was requested i just quickly banged this
one out...
No chords or other silliness, this is a straight
transcription of the piano on the track.


e |--------3-----3-----3-----3-----2-----2-----2-----|
B |--------------------------------------------------|
G |--4-----------------------------------------------|
D |--------2-----------------------------------------|
A |--0-----------------3-----------------------------|
E |--------------------------------------------------|

e |--2-----------------0-----------------------------|
B |--------------------------------------------------|
G |--------------------------------------------------|
D |--0-----------------2-----------------------------|
A |--0-----------------2-----------------------------|
E |--------------------------------------------------|

e |--0-----------0-----------------------------------|
B |--------0-----------1-----------------------------|
G |--------------------2-----------------------------|
D |--2-----------------------------------------------|
A |--------2-----------3-----------------------------|
E |--------------------------------------------------|

e |--------------------------------------------------|
B |--------------------------------------------------|
G |--2-----------------4-----------------------------|
D |--0-----------------2-----------------------------|
A |--0-----------------2-----------------------------|
E |--------------------------------------------------|

that's it!







     1  +  2  +  3  +  4  +  1  +  2  +  3  +  4  +   
e |--------------------------------------------------|
B |--------------------------------------------------|
G |--------------------------------------------------|
D |--------------------------------------------------|
A |--------------------------------------------------|
E |--------------------------------------------------|
Tap to rate this tab
 
# A B C D E F G H I J K L M N O P Q R S T U V W X Y Z