Song name
# A B C D E F G H I J K L M N O P Q R S T U V W X Y Z

Eminem - We Made You tab

 
Im surprised i found this actually, as i was just doing nothing on my guitar,i 
just found a sorta rythem which reminded me of this song. 
so here it is...Eminen-We Made You 


Intro  ("Oh when you walk through the door")- I think thats the lyrics
e[------------------------]
B[--------10-11----10-11--]
G[-----11-------11--------]
D[--10--------------------]
A[------------------------]
E[------------------------]

e[------------------------]
B[----10-11-12-11-9-6-6-6-]
G[-11---------------------]
D[------------------------]
A[------------------------]
E[------------------------]

e[------------------------]
B[-7-7-8-8-8-9------------]
G[------------------------]
D[------------------------]
A[------------------------]
E[------------------------]




I know its not amazing or anything but still thats how it sounds.
Tap to rate this tab
# A B C D E F G H I J K L M N O P Q R S T U V W X Y Z