Guitaretab - guitar tabs
Song name
# A B C D E F G H I J K L M N O P Q R S T U V W X Y Z

Eminem - Beautiful tab

EMiNEM-BEAUTiFUL
 (sampling from "reaching out"-Paul rogers)
I think this tab is the best you can find of this song
rate it and comment it ;-)

(standard tunning)
~-hold notes
p-pull-off
h-hammer-on
s-slide to

Lately i've been hard to reach...
e---------------8----------------------------------(8)----------/
B---------------9--------------------------------x--9-----------/
G--------------10---------------------------(8)--x-10-----------/
D----------10-----10-------6----------6------8---x-10-----------/
A-------8----------------4------6s8----------6---x--8-----------/
E---------------------------------------------------------------/
[ Tab from: http://www.guitaretab.com/e/eminem/209609.html ]
...everybody has a private world...
e--------------8-----------------------------------(8)---/
B--------------9---------------------------------x--9----/
G-------------10-------------------------(8)-----x-10----/
D---------10-----10---------6---------6---8------x-10----/
A------8----------------4------6s8--------6------x--8----/
E--------------------------------------------------------/

----8---------------------------/
--------9h11p9------------------/
--------------------10----------/
------------------------10------/
--------------------------------/
--------------------------------/


are you calling me?..
e-------------4-x---------------------------6-----------/
B-------------4-x------------(6)~--x--(6)~--6-----------/
G------(6)~--(6)x-------(8)~--(5)~--x--(6)~-(6)---------/
D-------6 ~-------------8~----8 ~--x---8 ~--------------/
A-------4 ~-------------6~----7 ~--x---8 ~--------------/
E-------------------------------------------------------/

are you reaching out for me?..
e-----------------------------------------------------------/
B-----------------------------------------------------------/
G------(6)~---------(8)~-----------------------(10)---------/
D-------6 ~----------8~------------------------10-----------/
A-------4 ~----------6~-----------------8h11---8------------/
E-----------------------------------8h11--------------------/
Related for Beautiful tab
Beautiful chords by Eminem