Song name
# A B C D E F G H I J K L M N O P Q R S T U V W X Y Z

Eminem - Talkin 2 Myself tab

Eminem (Feat. Kobe) - Talking 2 Myself  Album - Recovery

Drop C#     C G C F A D     Distortion

This is my first tab so sorry if anything is wrong.

Order

Intro
Main Riff (x3)
Main Riff 2
Main Riff (x3)
Main Riff 3
Main Riff (x6)
Main Riff 3
Main Riff (x3)
Main Riff 3
Main Riff (x3)
Main Riff 2
Main Riff (x3)
Main Riff 3
Main Riff (x3)
Main Riff 2
Main Riff (x3)
Main Riff 3
Main Riff (x6)
Main Riff 3
Main Riff (x3)
Main Riff 2
Main Riff (x3)
Main Riff 3
Main Riff (x3)
Main Riff 4
Outro

Intro

D|----------------------|
A|--7----5----7----3----|
F|--5----3----5----1----|
C|----------------------|
G|----------------------|
C|----------------------|

Main Riff

D|---------------------------|
A|-----8----6----4----4----6-|
F|----7----5----3----3----5--|
C|---5----3----1----1----3---|
G|--5----3----1----1----3----|
C|---------------------------|

Main riff 2

D|----------------------7-7-9--|
A|-----8----6----4----4-5-5-7--|
F|----7----5----3----3---------|
C|---5----3----1----1----------|
G|--5----3----1----1-----------|
C|-----------------------------|

Main Riff 3

D|-------------------------------------------|
A|-----4----4----6----6----8----8----6----6--|
F|----3----3----5----5----7----7----5----5---|
C|---1----1----3----3----5----5----3----3----|
G|--1----1----3----3----5----5----3----3-----|
C|-------------------------------------------|

Outro

D|-------------------------------|
A|-----8----6----4----4----6-6---|
F|----7----5----3----3----5---5--|
C|---5----3----1----1----3-----3-|
G|--5----3----1----1----3-------3|
C|-------------------------------|
Tap to rate this tab
 
# A B C D E F G H I J K L M N O P Q R S T U V W X Y Z