Eminem - Space Bound tab

-------------------------------------------------------------------------------
                             Space Bound  Eminem
						Recovery
-------------------------------------------------------------------------------
Tabbed by:jano915
Tuning:Standard

From Recovery, Track #10  Space Bound.  Listen to the song to perfect the exact timing.
 Sometimes it's hard to transfer exact playing over to tablature.

              INTRO
e|-----5---------------------------------------------------------------------|
B|-----6------6----6---------------------------------------------------------|
G|-----7------7------7-------------------------------------------------------|
D|-----7------7--------7-----------------------------------------------------|
A|-----5---------5-----------------------------------------------------------|
E|---------------------------------------------------------------------------|


		FIRST VERSE
e|-----5-------------------------1---------1----------------------5----------|
B|-----6------6----6--------6----1---1-------1------1--5---5-------5----5----|
G|-----7------7------7------6----2---2---------2----2--5---5--------5---5----|
D|-----7------7--------7----7----3---3-----------3--3--5---5---------5--5----|
A|-----5---------5--------5------3------------------3--3------3---------3----|
E|-------------------------------1------1------------------------------------|

e|----3----------3---------6---------6----6\1-----1----3-3-3-3-3-3-3-x-------|
B|----3----3------3----3---6----6-----6---6\1--1---1---3-3-3-3-3-3-3-x-------|
G|----4----4-------4---4---7----7------7--7\2--2----2--4-4-4-4-4-4-4-x-------|
D|----5----5--------5--5---8----8---------8\3--3-------5-5-5-5-5-5-5-x-------|
A|----5----------------5---8--------------8\3----------5-5-5-5-5-5-5-x-------|
E|----3------3-------------6------6-------6\1----1-----3-3-3-3-3-3-3-x-------|

		The 2nd Verse is the same as the first, but where the first verse leaves off on 7 
of the G Chord the verse keeps going.
I usually will play Ab barre chord quietly and mix between that and G


		CHORUS (Strum these Chords, listen to song for timing)
     Dm      F    C  Ab               Dm   F   C  G  Ab+
e|----5------1-------------------------5---1------3---6------------------------|
B|----6------1----5---3----------------6---1---5--3---6------------------------|
G|----7------2----5---3----------------7---2---5--4---7------------------------|
D|----7------3----5---3----------------7---3---5--5---8------------------------|
A|----5------3----3---1----------------5---3---3--5---8------------------------|
E|-----------1-----------------------------1------3---6------------------------|


************************************

 \ =  slide down
 x =  palm mute
Tap to rate this tab
 
# A B C D E F G H I J K L M N O P Q R S T U V W X Y Z