Song name
# A B C D E F G H I J K L M N O P Q R S T U V W X Y Z

Eminem - Without Me tab

----------------------------------------------------------------------------
			     with out me - eminem
----------------------------------------------------------------------------
Tabbed by:
Email:al_ga5sh@hotmail.com

Tuning:normal
    

I think that the intro needs some one to thing it or a band to pack up you while playing it.


Intro:

e|---------------------------------|
B|---------------------------------|
G|---------------------------------|
D|3-4--------4-3---3-4--------4-3--|
A|----3----3------------3---3------|
E|---------------------------------|


e|-------------------------------------------------|
B|-------------------------------------------------|
G|--34-6-45-7-56-8-67-9-78-(10)-89-(11)-9(10)-(12)-|
D|-------------------------------------------------|
A|-------------------------------------------------|
E|-------------------------------------------------|

e|---------------------|
B|---------------------|
G|---------------------|
D|----(12)----0-h(12)0-|
A|(12)----(11)---------|
E|---------------------|

e|---------------------------|
B|---------------------------|
G|---------------------------|    x2
D|0-h(12)0-0-h(12)0-0-h(12)0-|
A|---------------------------|
E|---------------------------|

e|------------------------------------------------h-|
B|------------------------------------------------h-|
G|------------------------------------------------h-|
D|----(12)----0-h(12)0-0-h(12)0-0-h(12)0-0-h(12)0-h-|
A|(12)----(11)------------------------------------h-|
E|------------------------------------------------h-|


e|-------------------------------------------------|               
B|--(10)-9-7------------5---------------------3----|     
G|7----------7-7--7-5-7---7-7-7-5-7-5-3-3-3-2---0-0|                      
D|-------------------------------------------------|   
A|-------------------------------------------------|        
E|-------------------------------------------------|

keep onrepeating the last part


| /  slide up
| \  slide down
| h  hammer-on
| p  pull-off
| ~  vibrato
| +  harmonic
| x  Mute note
============================================================================
Tap to rate this tab
# A B C D E F G H I J K L M N O P Q R S T U V W X Y Z