Song name
# A B C D E F G H I J K L M N O P Q R S T U V W X Y Z

Eminem - 25 To Life tab

E---------------------------------------------|
B---------------------------------------------|
G-----4---------------------------------------|
D--6--4--4--6---------------------------------|
A--6--2--4--6---------------------------------|
E--4-----2--4---------------------------------|

this is what the acoustic plays for the whole song u can also play a cool little lead 
for the chorus  like this to make things better

E----------------------------------------------|
B-12-11-------------------12-11----------------|
G------11-8-11-13-8-11-13------11-8-11-13-13---| X2
D----------------------------------------------|
A----------------------------------------------|
E----------------------------------------------|


For an example on how this all sounds expecially the 2nd part here is a link to my video 
will show it all and let u hear how it sounds       http://www.youtube.com/watch?v=uDV4RC471tg
Tap to rate this tab
# A B C D E F G H I J K L M N O P Q R S T U V W X Y Z