Song name
# A B C D E F G H I J K L M N O P Q R S T U V W X Y Z

Eminem - Cleaning Out My Closet tab

--------------------------------------------------------------------------
                     CLEANING OUT MY CLOSET - Eminem
--------------------------------------------------------------------------
Tabbed by: Brian K.

e|------------------------------------------------------------------------|
B|------------------------------------------------------------------------|
G|---------6----------------------------6-----------4------4-6------------|
D|---4-4-7------4-7------7---6----4-4-7------4-7---------7------7-6-------|
A|------------------5------5---------------------5------------------------|
E|------------------------------------------------------------------------|

e|------------------------------------------------------------------------|
B|------------------------------------------------------------------------|
G|-------4----------------------------------------------------------------|
D|---6-7---6-7------------------------------------------------------------|
A|------------------------------------------------------------------------|
E|------------------------------------------------------------------------|
Tap to rate this tab
# A B C D E F G H I J K L M N O P Q R S T U V W X Y Z