Song name
# A B C D E F G H I J K L M N O P Q R S T U V W X Y Z

Eminem - Mockingbird tab

-------------------------------------------------------------------------------
			  Mocking Bird - Eminem
-------------------------------------------------------------------------------
Tabbed by: MVersteeg
Email: mathijsversteeg@hotmail.com

Tuning: Standard


   Em*            C             D            Em**               Em**                       
e|------15-15-17-15--14-14------14-14-15p14-12---------------------12--------|
B|--12-------------------------------------------------12-12-12-12-----12----|
G|---------------------------------------------------------------------------|
D|---------------------------------------------------------------------------|
A|---------------------------------------------------------------------------|
E|---------------------------------------------------------------------------|
          C                        Am                  Em*
e|---------------------------------------------------------------------------|
B|-12--------12-------12-12-12----------12-----------------------------------|
G|-----12-14---------------------12-14-------12-11---------------------------|
D|----------------------------------------------------14---------------------|
A|---------------------------------------------------------------------------|
E|---------------------------------------------------------------------------|

Em** = x79987
Em*  = 022000
Tap to rate this tab
 
# A B C D E F G H I J K L M N O P Q R S T U V W X Y Z