Eminem - Love The Way You Lie tab

-----------------------------------------------------------------------------
		Love The Way You Lie - Eminem (feat. Rihanna)
-----------------------------------------------------------------------------
Album: Recovery
Tabbed by: Strumpatterns.com

Tempo = 88
Time Signature= 4/4

Standard Tuning, Capo 3rd fret

Chords in parenthesis are the actual chords you hear, the 
chord name is the shape of the chord relative to the capo

n=Downstroke
V=Upstroke

    Em(Gm)
    n     n     n     n  V  n  V  n     n     n  V     
E |-------------0-----0--0--0--0--------0-----0--0----|
B |-------------0-----0--0--0--0--------0-----0--0----|
G |-------------0-----0--0--0--0--------0-----0--0----|
D |-------------2-----2--2--2--2--------2-----2--2----|
A |-------------2-----2--2--2--2--------2-----2--2----|
E |-0-----0-----0-----0--0--0--0--0-----0-----0--0----|

     C2(Eb2)              Cadd9(Ebadd9)
     n  V  n     n     n  V  n  V  n     n     n  V     
E |--0--0--0-----0-----0--3--3--3--------3-----3--3----|
B |--3--3--3-----3-----3--3--3--3--------3-----3--3----|
G |--0--0--0-----0-----0--0--0--0--------0-----0--0----|
D |--2--2--2-----2-----2--2--2--2--------2-----2--2----|
A |--3--3--3-----3-----3--3--3--3--3-----3-----3--3----|
E |----------------------------------------------------|

     G(Bb)
     n     n     n     n  V  n  V  n     n     n  V     
E |--------------3-----3--3--3--3--------3-----3--3----|
B |--------------3-----3--3--3--3--------3-----3--3----|
G |--------------0-----0--0--0--0--------0-----0--0----|
D |--------------0-----0--0--0--0--------0-----0--0----|
A |--------------2-----2--2--2--2--------2-----2--2----|
E |--3-----3-----3-----3--3--3--3--3-----3-----3--3----|

     Dsus4/F#(Fsus4/A)
			     repeat from beginning 2x
     n     n     n     n  V  n  V  n     n     n  V     
E |--------------3-----3--3--3--3--------3-----3--3---||
B |--------------3-----3--3--3--3--------3-----3--3---||
G |--------------2-----2--2--2--2--------2-----2--2---||
D |--------------0-----0--0--0--0--------0-----0--0---||
A |--------------0-----0--0--0--0--------0-----0--0---||
E |--2-----2-----2-----2--2--2--2--2-----2-----2--2---||


     Em(Gm)
     n     n     n     n  V  n  V  n     n     n  V     
E |--------------0-----0--0--0--0--------0-----0--0----|
B |--------------0-----0--0--0--0--------0-----0--0----|
G |--------------0-----0--0--0--0--------0-----0--0----|
D |--------------2-----2--2--2--2--------2-----2--2----|
A |--------------2-----2--2--2--2--------2-----2--2----|
E |--0-----0-----0-----0--0--0--0--0-----0-----0--0----|

     C2(Eb2)              Cadd9(Ebadd9)
     n  V  n     n     n  V  n  V  n     n     n  V     
E |--0--0--0-----0-----0--3--3--3--------3-----3--3----|
B |--3--3--3-----3-----3--3--3--3--------3-----3--3----|
G |--0--0--0-----0-----0--0--0--0--------0-----0--0----|
D |--2--2--2-----2-----2--2--2--2--------2-----2--2----|
A |--3--3--3-----3-----3--3--3--3--3-----3-----3--3----|
E |----------------------------------------------------|

     G(Bb)
     n     n     n     n  V  n  V  n     n     n  V     
E |--------------3-----3--3--3--3--------3-----3--3----|
B |--------------3-----3--3--3--3--------3-----3--3----|
G |--------------0-----0--0--0--0--------0-----0--0----|
D |--------------0-----0--0--0--0--------0-----0--0----|
A |--------------2-----2--2--2--2--------2-----2--2----|
E |--3-----3-----3-----3--3--3--3--3-----3-----3--3----|

     Dsus4/F#(Fsus4/A)
     n     n     n     n  V
E |--------------3-----3--3----------------------------||
B |--------------3-----3--3----------------------------||
G |--------------2-----2--2----------------------------||
D |--------------0-----0--0----------------------------||
A |--------------0-----0--0----------------------------||
E |--2-----2-----2-----2--2----------------------------||


Visit www.Strumpatterns.com for more tabs, rhythm guitar lessons and tutorials all for free!
Tap to rate this tab
 
# A B C D E F G H I J K L M N O P Q R S T U V W X Y Z