Eminem - Love The Way You Lie tab

capo  at the 3rd fret.....,



chords: 
   Em        C        G       DF#
e|--0-|   e|--0-|  e|--0-|  e|--x-|
B|--0-|   B|--1-|  B|--3-|  B|--3-|
G|--0-|   G|--0-|  G|--0-|  G|--2-|
D|--2-|   D|--2-|  D|--0-|  D|--0-|
A|--2-|   A|--3-|  A|--2-|  A|--0-|
E|--0-|   E|--x-|  E|--3-|  E|--2-|

here we gO!
           Em
e|---0-0------7---0----7--0-|
B|---0-----3-----0--3----0--|
G|---0----------0-----------|
D|---2--------2--------2----|
A|--------------------------|
E|--------------------------|

    C
e|--------------------------|
B|---3----1-1--1------------|
G|---0----0---0-------------|
D|--------2-----------------|
A|---3----3-----------------|
E|--------------------------|


   G                  DF#
e|------------------|------------|
B|-----0----1----0--|---------3--|
G|-------0------0---|--2-2---2---|
D|----0--------0----|----0--0----|
A|---2--------------|------0-----|
E|--3-------3-------|----2-------|





    Em
e|---0-0------7---0----7--0-----|
B|---0-----3-----0--3----0------|
G|---0----------0---------------|
D|---2--------2--------2--------|
A|------------------------------|
E|------------------------------|

    C
e|------------------------------|
B|---3----1-1--1----------------|
G|---0----0---0-----------------|
D|--------2---------------------|
A|---3----3---------------------|
E|------------------------------|


    G                   DF#     C           Em
e|------------------|--------|-----------|----------|
B|---0----1----0----|--------|--1-0-0----|----------|
G|-----0------0-----|--2-2---|--0------0-|---0------|
D|---0-------0------|----0---|--2--------|---2------|
A|---2--------------|--------|--3--------|---2------|
E|---3----3---------|----2---|-----------|---0------|


do the tab when singing the intro chorus
Intro Chorus - Rihanna

Just gonna stand there and watch me burn
Well thatís alright because I like the way it hurts
Just gonna stand there and hear my cry
Well thatís alright because I love the way you lie
Love the way you lie

[Verse 1 - Eminem]
      Em    C    G     D
I canít tell you what it really is
I can only tell you what it feels like
And right now thereís a steel knife in my windpipe
I canít breathe but I still fight all I can fight
As long as the wrong feels right itís like Iím in flight

       Em    C    G     D
High off on love, drunk from my hate
Itís like Iím huffiní paint and I love it
The more I suffer, I suffocate
Right before Iím about to drown, she resuscitates
Me, she f**kiní hates me, and I love it, Wait!
Where you going? Iím leaving you.
No you ainít. Come back. Weíre running right back

        Em    C    G     D
Here we go again, itís so insane
Cuz when itís going good, itís going great
Iím Superman with the wind in his back
Sheís Louis Lane and when its bad, itís awful
I feel so ashamed, I snap ďWhoís that dude?Ē
I donít even know his name
I laid hands on him, I never stood so low again
I guess I donít know my own strength



[Chorus - Rihanna]
         Em    C    G     D
Just gonna stand there and watch me burn
Well thatís alright because I like the way it hurts
Just gonna stand there and hear my cry
Well thatís alright because I love the way you lie
I love the way you lie
I love the way you lie

[Verse 2 - Eminem]
          Em    C    G     D
You ever love somebody so much,
you could barely breathe when you with Ďem?
You meet, and neither one of you even know it hit Ďem
Got that warm fuzzy feeling, yeah them chills you still get Ďem
Now you gettiní f**kiní sick of lookiní at Ďem
You swore youíd never hit Ďem, never do nothing to hurt Ďem
Now youíre in each otherís face spewing venom in your words when you spit Ďem
You push, pull each otherís hair, scratch, claw, bit Ďem
Throw Ďem down, pin Ďem, so lost in the moments when youíre with Ďem

          Em    C    G     D
Mr .(?). is the culprit ..(?)..
Shawty say, youíd best to go your separate ways
Guess that they donít know ya cuz today,
That was yesterday, yesterday is over and itís a different day
Sound like broken records playing over
But you promised her, next time youíd show restraint
You donít get another chance
Life is no tender pain(?) but you lied again
Now you get to watch her leave out the window
Guess thatís why they call it ďwindow paneĒ



[Chorus - Rihanna]
         Em    C    G     D
Just gonna stand there and watch me burn
Well thatís alright because I like the way it hurts
Just gonna stand there and hear my cry
Well thatís alright because I love the way you lie
musicjuzz.blogspot.com
I love the way you lie
I love the way you lie


[Verse 3 - Eminem]
         Em    C    G     D
Now I know we said things, did things that we didnít mean
And we fall back into the same patterns, same team
But your temperís just as bad as mine is
Youíre the same as me
When it comes to love youíre just as blinded

         Em    C    G     D
Baby please come back, it wasnít you. Baby it was me.
Maybe our relationship isnít as crazy as it seems
Maybe thatís what happens when a tornado meets a volcano
All I know is I love you too much, to walk away now
Come inside, pick up your bags off the sidewalk
Donít you hear sincerity in my voice when I talk?
I told you this is my fault, look me in the eyeball
Next time Iím pissed, Iíll aim my fist at the drywall
Next time? There wonít be no next time
I apologize, even though I know itís lies
Iím tired of the games, I just want her back. I know Iím a liar
If she ever tries to f**kiní leave again,
Ima tie her to the bed and set this house on fire
Just gonna

[Chorus - Rihanna]
          Em    C    G     D
Just gonna stand there and watch me burn
Well thatís alright because I like the way it hurts
Just gonna stand there and hear my cry
Well thatís alright because I love the way you lie
I love the way you lie
I love the way you lie
Tap to rate this tab
 
# A B C D E F G H I J K L M N O P Q R S T U V W X Y Z