Song name
# A B C D E F G H I J K L M N O P Q R S T U V W X Y Z

Eminem - 25 To Life tab

-------------------------------------------------------------------------------
			     25 to life - Eminem
-------------------------------------------------------------------------------
Tabbed by: Mathijs Versteeg
Email: mathijsversteeg@hotmail.com

Tuning: Standard
Check http://www.youtube.com/watch?v=Pdg6HEppRF4 for a demo/strumming

G#m = 466444
B = 7799877
F# = 224432
E = 022100


   G#m     B            F#        G#m
e|------7--6-----------------------------------------------------------------|
B|-------------------7p4h7---7/9---------------------------------------------|
G|--------------------------------8------------------------------------------|
D|---------------------------------------------------------------------------|
A|---------------------------------------------------------------------------|
E|---------------------------------------------------------------------------|

          B     F#      E     G#m
e|----------4-7-6------------------------------------------------------------|
B|----4-4-7---------7p4h7-7--7/9---------------------------------------------|
G|---------------------------------------------------------------------------|
D|---------------------------------------------------------------------------|
A|---------------------------------------------------------------------------|
E|---------------------------------------------------------------------------|

| p   pull-off
| ~   vibrato
| +   harmonic
| x   Mute note
| b   Bend
| pb  Pre-bend
| br  Bend release
| pbr Pre-bend release
| brb Bend release bend
Tap to rate this tab
# A B C D E F G H I J K L M N O P Q R S T U V W X Y Z