Eminem - Wont Back Down tab

Won't Back Down - Eminem Feat. Pink
Recovery

Standard Tuning
Novice

Intro:

e -----------------------------------------------|
A -----------------------------------------------|
D -----------------------------------------------|
G -----------------------------------------------|
B ------------------------------------------8-10-|
E 10-10-8-10-8-10-10-8-10-8-10-10-8-10-8-10------|

Chorus/Verse Lead:

e -------        Then... -----------------8-10-|
A 10B-10R  (slightest    --10B-10R-10B-10R-----|
D -------    bend)       ----------------------|
G -------                ----------------------|
B -------                ----------------------|
E -------                ----------------------|

Outro:

e -----------------------------------------8-10-|
A 10-10-8-10-8-10-10-8-10-8-10-10-8-10-8-10-----|
D ----------------------------------------------|
G ----------------------------------------------|
B ----------------------------------------------|
E ----------------------------------------------|

This is my first tab, email me if there are any mistakes or corrections to be made, Thanks :)

Spencer,
Tap to rate this tab
 
# A B C D E F G H I J K L M N O P Q R S T U V W X Y Z