Eminem - Mockingbird tab

-------------------------------------------------------------------------------
			     Stan ft. Dido - Eminem
-------------------------------------------------------------------------------
Tabbed by: Mathijs Versteeg
Email: Mathijsversteeg@hotmail.com	

Tuning: Standard	


For timing and strumming watch:
http://www.youtube.com/watch?v=LpwuBnmln-o

G#m    = 466444
E      = x79997
F#     = x-9-11-11-11-9
Bm     = 688666
B / Bb = 588xxx

   G#m 	     E               F#              Bm     B/Bb
e|---------------------------------------------------------------------------|
B|-------4-4-4-4h5 ---------4-------------------4------4---------------------|
G|-----------------6-----4----4--4h6-------4-4------3------------------------|
D|-----6--------------------------------------------------------6------------|
A|---------------------------------------------------------------------------|
E|---------------------------------------------------------------------------|

   G#m 	     E                 F#        Bm     B/Bb
e|---------------------------------------------------------------------------|
B|-------4-4-4-4h5 ---------4----------7-7h9---------------------------------|
G|-----------------6-----4-----6-------------8--8/6--------------------------|
D|-----6---------------------------------------------------------------------|
A|---------------------------------------------------------------------------|
E|---------------------------------------------------------------------------|

   G#m 	 E                F#               Bm     B/Bb
e|---------------------------------------------------------------------------|
B|---7-7-7-7h9------------4----------------4--4h5--4----4-----4--------------|
G|--------------6----4h6-----4--6-----4h6------------------6-----------------|
D|---------------------------------------------------------------------------|
A|---------------------------------------------------------------------------|
E|---------------------------------------------------------------------------|

   G#m 	          E                      F#                   Bm  B/Bb
e|---------------------------------------------------------------------------|
B|-------4-------------------------------4--------------------4--------------|
G|-----------6--/8\6---4-------------4-------4--4h6-------4------4--4h6p4----|
D|---6----------------------------6---------------------------------------6--|
A|---------------------------------------------------------------------------|
E|---------------------------------------------------------------------------|

************************************

| /   slide up
| \   slide down
| h   hammer-on
| p   pull-off
| ~   vibrato
| +   harmonic
| x   Mute note
| b   Bend
| pb  Pre-bend
| br  Bend release
| pbr Pre-bend release
| brb Bend release bend

************************************
Tap to rate this tab
 
# A B C D E F G H I J K L M N O P Q R S T U V W X Y Z