Eminem - One Shot Two Shot tab

-------------------------------------------------------------------------------
			     My Band - D-12
-------------------------------------------------------------------------------
Tabbed by:Pyrotekk66

Tuning: Standard

e|---------------------------------------------------------------------------|
B|---------------------------------------------------------------------------|
G|---------------------------------------------------------------------------|
D|--------6--4--6---6--4--6-----6--4--6-----6--7--6--------------------------|
A|------4---------4----------4-----------4-----------------------------------|
E|---------------------------------------------------------------------------|

e|---------------------------------------------------------------------------|
B|---------------------------------------------------------------------------|
G|---------------------------------------------------------------------------|
D|---------6--4--6-----6--4--6---6--4--6-----4--2--1-------------------------|
A|------4-----------4----------4----------4----------------------------------|
E|---------------------------------------------------------------------------|
Tap to rate this tab
 
# A B C D E F G H I J K L M N O P Q R S T U V W X Y Z