Guitaretab - guitar tabs
Song name
# A B C D E F G H I J K L M N O P Q R S T U V W X Y Z

Eminem - Beautiful tab

Intro p1 X2
E---------------------|
B---------------------|
G------10-------------|
D----10--10---6-------|
A-8--------4-6-6--6/8-|
E---------------------|

Intro p2
E--------------------------------------------------|
B--------------------------------------------------|
G--------------------------------------------------|
D-6--6--8--8----6--6--10-10---6--6----8--8---------|
A-4--4--6--6----4--4--8--8----4--4----6--6----4-6-8|
E--------------------------------------------------|

Verse - play until Chorus
E------13-15-16-15-13----15----------------------13-15-16-15-13----15--------13-15-|
B-13------------------16-----13---13-11-13--11------------------16-----13-15-------|
G----------------------------------------------------------------------------------|
D----------------------------------------------------------------------------------|
A----------------------------------------------------------------------------------|
E----------------------------------------------------------------------------------|

Chorus
E-----------------------:|
B-----------------------:|
G-----------------------:|
D-6--6--8--8--10-10-108-:|
A-4--4--6--6--8--8--8\6\:|
E-----------------------:|

Repeat Verse, then Chorus, then Intro p1, then
[ Tab from: http://www.guitaretab.com/e/eminem/277832.html ]
Guitar Solo
E------13-15-16-15-13----15--------------------------------------------------------|
B-13------------------16-----13---13-11-13-14-9h12-14-9h12-14-9h12-14-9h12-15-9h12-|
G----------------------------------------------------------------------------------|
D----------------------------------------------------------------------------------|
A----------------------------------------------------------------------------------|
E----------------------------------------------------------------------------------|
                                           t       t       t       t       t       t
------------------------|
15-9h12-15-9h12-15-9h12-|
------------------------|
------------------------|
------------------------|
------------------------|     
  t       t
E---------------------------------------------------------------------1315161513-------------|
B-12-9h6-12-9h6-12-9h6-12-9h6-12-9h6-12-9h6-10-9h6-10-9h6-7/10-7---13-----------1613---11-13-|
G--------------------------------------------------------------------------------------------|
D--------------------------------------------------------------------------------------------|
A--------------------------------------------------------------------------------------------|
E--------------------------------------------------------------------------------------------|
  t      t      t      t      t      t      t      t

- Add notes: Paul Rodgers sings in intros, Eminem raps in Verse, Eminem sings in Chorus, 
Brian May solos in Guitar Solo
- Code: "/" = Slide up
- Code: "\" = Slide down
- Code: ":" = Repeat bar
Related for Beautiful tab
Beautiful chords by Eminem