Song name
# A B C D E F G H I J K L M N O P Q R S T U V W X Y Z

Eminem - Stan tab

Stan - Eminem
E----------0------------------------------------0--------------2-4-------|
B---4-4--4---2-0-4-0-2----0--4---4-------4-4--4---2--0--4-2--0-----4-2-4-|
G-----------------------3------3---1---1---------------------------------|
D-6----------------------------------------------------------------------|
A------------------------------------------------------------------------|
E------------------------------------------------------------------------|

E-2-2--2--2-4-----------------------0-------------------------------------------|
B--------------2-2-0-4~-2-2--0-2-4----4-4--4-2----4-2--4-0---0--4-0-2---4-0-2-0-|
G-----------------------------------------------1----------1----------1---------|
D-------------------------------------------------------------------------------|
A-------------------------------------------------------------------------------|
E-------------------------------------------------------------------------------|

E----------0------------------------------------0--------------2-4-------|
B---4-4--4---2-0-4-0-2----0--4---4-------4-4--4---2--0--4-2--0-----4-2-4-|
G-1---------------------3------3---1---1---------------------------------|
D------------------------------------------------------------------------|
A------------------------------------------------------------------------|
E------------------------------------------------------------------------|

E-2-2--2--2-4-----------------------0-------------------------------------------|
B--------------2-2-0-4~-2-2--0-2-4----4-4--4-2----4-2--4-0---0--4-0-2---4-0-2-0-|
G-----------------------------------------------1----------1----------1---------|
D-------------------------------------------------------------------------------|
A-------------------------------------------------------------------------------|
E-------------------------------------------------------------------------------|
Tap to rate this tab
 
# A B C D E F G H I J K L M N O P Q R S T U V W X Y Z